Oops, an error
Loading. Please wait.

Redemption Tab

version 1
version 1

Solo

Whole song

Interactive

3,487 views 1 this week
3 commentsread comments
1 2 3 4 5
accurate
x 3
add to favorites
launch autoscroll
font size
0
reset
how to read this tab
guitar tuner
Autoscroll
slow
fast
+/-
esc
set tempo
stop
Help us to improve Ultimate-Guitar.com Take our survey!
×
Author

shadows fall
redemption
drop d tuning
D A D G B E


--17p13-------------13-17/20-17-------------17-20-20-18p17-18p17----|
--------15-------15-------------18----17-18-------------------------|
-----------14-16-------------------19-------------------------------|
--------------------------------------------------------------------|
--------------------------------------------------------------------|
--------------------------------------------------------------------|


--20-20-18p17-18p17----17-----------13h17-13----13-17p13-----13h17p13/12--|
--------------------20----20-18---13----------13-----------13-------------|
--------------------------------14----------14-----------14---------------|
--------------------------------------------------------------------------|
--------------------------------------------------------------------------|
--------------------------------------------------------------------------|


-------12h16p12-----12h16p12----12--17p13-------------13-17/20-17--------|
-----12-----------12----------12----------15-------15-------------18-----|
---13-----------13----------13---------------14-16-------------------19--|
-------------------------------------------------------------------------|
-------------------------------------------------------------------------|
-------------------------------------------------------------------------|


--------17-20-20-18p17-18p17----17---------------------|
--17-18----------------------20----20-18---------------|
-------------------------------------------------------|
-------------------------------------------------------|
-------------------------------------------------------|
-------------------------------------------------------|


------13h17-13-----13-18p13-----13h17p13-----12h16-12-----12h16-12----12---|
----13-----------13-----------13-----------12-----------12----------12-----|
--14-----------14-----------14-----------13-----------13----------13-----0-|
---------------------------------------------------------------------------|
---------------------------------------------------------------------------|
---------------------------------------------------------------------------|


-15b-15-15-15-15-15----------------------------17h20-18p17----------------|
--------------------------15-17-18/20-17-19-20-------------20-17-18-20----|
--------------------15h17-------------------------------------------------|
--------------------------------------------------------------------------|
--------------------------------------------------------------------------|
--------------------------------------------------------------------------|


-------------------------------------10-10h13p10----10h13p10----10h13-|
--18-17-18-17------------------------10----------13----------13-------|
--------------19-17-19b--0-12bh10-------------------------------------|
-------------------------0--------12----------------------------------|
----------------------------------------------------------------------|
----------------------------------------------------------------------|


----/15----17----15-------------17----15-------------18-15-17-15----15---15-|
---------0----18----18-17-18-15----18----18-17-18-15-------------18----17---|
--0-------------------------------------------------------------------------|
--0-------------------------------------------------------------------------|
----------------------------------------------------------------------------|
----------------------------------------------------------------------------|


-----------------------------------------------------------------------|
--17-18-17-15-17----------------------2h3h5p3p2-4-4/7-2-3-5p2h3-----2--|
-----------------17-------2h3-5-2-3-5---------------------------5p4----|
--------------------1h3h5----------------------------------------------|
-----------------------------------------------------------------------|
-----------------------------------------------------------------------|


-------------------------10----------------------10-------------------------|
-------8-9-11-8h10p11-13----13-11-10-13-11-10-13----13-11-10-13-11p10h11/15-|
--8h10----------------------------------------------------------------------|
----------------------------------------------------------------------------|
----------------------------------------------------------------------------|
----------------------------------------------------------------------------|


-----------------------------------------------------|
--18-15-13-15/18p16-20-------------------------------|
--------------------20-------------------------------|
--------------------20-------------------------------|
-----------------------------------------------------|
-----------------------------------------------------|


kickass solo this is 100% right
Suggest correction
What's this?
You can suggest a correction to this tab. Community and Mods will review your correction and vote to approve or reject it.
comments
We did not receive enough feedback on this tab! Please rate:
print report bad tab
1 2 3 4 5
3 comments total.
0 reply
arnell 215 wrote on July 19 2007, 11:02 pm

i made a mistake i added some notes that shouldent be there ill show u in the biggining well ill show u the wrong one and the right one

wrong one
--17p13-------------13-17/20-17-------------17-20-20-18p17-18p17----|
--------15-------15-------------18----17-18-------------------------|
-----------14-16-------------------19-------------------------------|
--------------------------------------------------------------------|
--------------------------------------------------------------------|
--------------------------------------------------------------------|

right one
--17p13-------------13-17/20-17-------------17-|
--------15-------15-------------18----17-18----|
-----------14-16-------------------19----------|
-----------------------------------------------|
-----------------------------------------------|
-----------------------------------------------|

0 reply
Pete.g 69 wrote on January 11 2009, 07:30 am

not t be a bugger, but, you forgot the artificial in the midle of the upscale in the third part, still five stars anyway man

0 reply
god of iceland 289 wrote on March 8 2009, 12:51 pm

hahahahahahahaha lol this is maybe kick ass solo but far from being 100% right 3*

guest
You may want to rate the tab now too:
select rating
Please do not post tabs as comments. Select "correction" instead!