Oops, an error
Loading. Please wait.

Redemption Tab

version 1
version 1

Whole song

Interactive

11,809 views 1 this week
9 commentsread comments
1 2 3 4 5
accurate
x 9
add to favorites
launch autoscroll
font size
0
reset
how to read this tab
guitar tuner
Autoscroll
slow
fast
+/-
esc
set tempo
stop
Help us to improve Ultimate-Guitar.com Take our survey!
×
Author
Difficulty
Tuning
intermediate
D A D G B E
Shadows Fall
Redmeption

Off the new album "Threads of Life"

Alright guys, I've known how to play this song for like a month, I haven't touched on 
solo yet, but I can give you the rest of the song. Go ahead and drop your guitar in drop D 
lets go.

Intro
E--------------------------------------------|
B--------------------------------------------|
G--------------------------------------------|
D-3------------------------------------------| x2
A-1-0--0-------------------------------------|
D---0--0---0--0-0-0-0--0--0--0-0-0-0--0-0----|

E--------------------------------------------------|
B--------------------------------------------------|
G--------------------------------------------------|
D----5--3----3--------5--3----3--------------------| x4
A--------------2----------------2---0-0-1--3--5----|
D--0-------0-------0-------0-----------------------|

Then play the first into part again twice substituting the last 2 notes each time for these:

          1             2
E-----------------|---------------------------|
B-----------------|---------------------------|
G--------2--------|---------------------------|
D----------3------|---------------------------|
A-----------------|----5----3-----------------|
D-----------------|----3----1-----------------|

Verse pt.1
E-------------------------------------------------------------------|
B-------------------------------------------------------------------|
G-------------------------------------------------------------------|
D-------------------------------------------------------------------|
A--5-----3-----6---3----3-5-6-5-3---5-3-5-6--5-3--------------------|
D----0-0---0-0---0----0---------------------------6--0-5-6-8-0-5----|

E--------------------------------------------------------------|
B--------------------------------------------------------------|
G--------------------------------------------------------------|
D--------------------------------------------------------------|
A-5-----3-----6---3----3-5-6-5-3---5-3-5-6--5-3----------------|
D---0-0---0-0---0----0--------------------------6--0-5-0-5-5*--|

Verse pt.2
E------------------------------------------------------------------|
B------------------------------------------------------------------|
G------------------------------------------------------------------|
D------------------------------------------------------------------|
A--5-------3---5---3-----3---3---5-------5---3-----------6---5-----|
D----0-0-0---0---0---0-0---0---0---3-3-3---3---3-3-5-5-5---5---5-5-|

E--------------------------------------------------------------------|
B--------------------------------------------------------------------|
G--------------------------------------------------------------------|
D--------------------------------------------------------------------|
A--5p3-------3---5---3-----3---3---5-------5---3-----------6---8-----|
D------0-0-0---0---0---0-0---0---0---3-3-3---3---3-3-5-5-5---5-------|

E-------------------------------------------|
B-------------------------------------------|
G-----------------------------------2-------|
D-3-----------------------------------3-----|
A-1-0--0------------------------------------|
D---0--0---0--0-0-0-0--0--0--0-0-0-0--------|

E--------------------------------------------|
B--------------------------------------------|
G-------------------------------------0------|
D-3-------------------------------------2----| x2
A-1-0--0-------------------------------------|
D---0--0---0--0-0-0-0--0--0--0-0-0-0---------|

Seizeeeee the dayyyyyy
E--------------------------------------------|
B--------------------------------------------|
G--------------------------------------------|
D-3---------3-----------3-----1--------------|
A-1---------5-----------3-----1--------------|
D-----------------------3-----1--------------|

Chorus(play this twice):
Rhythm: D5
E--------------------------------------------|
B--------------------------------------------|
G---12-10---9-------12-10---9----------------|
D-0-------0---10--0-------0---10-8-10-12-----| x2
A--------------------------------------------|
D--------------------------------------------|

Rhythm: Bb5                            A5
E-------------------------------------------------------------------|
B-------------------------------------------------------------------|
G------10---10-12-10-----10---10-12-10-----7---7-9-7----7---7-9-7---|
D----8----8------------8----8------------7---7--------7---7-------7-|
A-------------------------------------------------------------------|
D--8-----------------8-----------------7-------------7--------------|

E--------------------------------------------|
B--------------------------------------------|
G--------------------------------------------|
D-0------------------------------------------|
A-0------------------------------------------|
D-0------------------------------------------|

E--------------------------------------------|
B--------------------------------------------|
G---------7-----8---7---------7--------10----|
D---------7-----8---7---------7--------10----| x3
A-0-0-0-0---0-0---0---0-0-0-0----------------|
D-------------------------------0-0-0-0------|

Back to verse... go through all that again...

Chorus... etc....

Bridge:
E--------------------------------------------|
B--------------------------------------------|
G--------------------------------------------|
D-5-7----------------------------------------|
A-3-5-6-5---------5-3------------------------|
D-----6-5-0-3-0-3-----5-3-6-5-3-5------------|

E--------------------------------------------|
B--------------------------------------------|
G--------------------------------------------|
D--------------------------------------------|
A--------------------------------------------|
D-0-8-7-0-7--0-8-6-0-6-----------------------|
                                             |x4
E--------------------------------------------|
B--------------------------------------------|
G--------------------------------------------|
D-5-7----------------------------------------|
A-3-5-6-5---------5-3------------------------|
D-----6-5-0-3-0-3-----5-3-6-5-3-5------------|

As for the end, just go through verse pt.2 and then head into the chorus. Thats it guys. 
questions, you can reach me on AIM at JeffxReigns.
Suggest correction
comments
print report bad tab
9 comments total. Showing first comments.
0 reply
that_i_am 89 wrote on April 26 2007, 08:40 pm

looks good i'll have to try out it later

0 reply
spencer Cr 507 wrote on May 1 2007, 07:50 pm

it's good, but because there's no solo ill have to give it a four

sorry try to get the solo

still good.

0 reply
that_i_am 89 wrote on May 2 2007, 08:10 pm

This is good but like Spencer, I can only give you a four until you post the solo.
(I'm not good with solos either.)

guest
You may want to rate the tab now too:
select rating
Wanna post a correction for this tab? Suggest correction