Oops, an error
Loading. Please wait.

Redemption Tab

version 3
version 3

Whole song

Interactive

4,264 views 1 this week
5 commentsread comments
1 2 3 4 5
accurate
x 7
add to favorites
launch autoscroll
font size
0
reset
how to read this tab
guitar tuner
Autoscroll
slow
fast
+/-
esc
set tempo
stop
Help us to improve Ultimate-Guitar.com Take our survey!
×
Author
Difficulty
Tuning
advanced
D A D G B E
REDEMPTION    Shadows Fall

tabed by Jeffo  (soberkiss)

x  = palm mute			h     = hammer-on
/  = slide up			p     = pull-off
\  = slide down			\ \ \ = pick scrape
~  = vibrato			+     = pinch harmonic
{} = play as indicated		()    = hold note or play riff endings
hb = half bend			fb    = full bend

took forever rate please

Intro   first time only one guitar plays
E--------------------------------------------|
B--------------------------------------------|
G--------------------------------------------|
D-3---0--------------------------------------| x2
A-1---0--------------------------------------|
D---0-0---0--0-0-0-0--0--0--0-0-0-0--0-0---0-|
    X     X  X X X X  X  X  X X X X  X X   X
E--------------------------------------------------|
B--------------------------------------------------|
G--------------------------------------------------|
D----5--3----3--------5--3----3--------------------| x4
A--------------2----------------2---0-0-1--3--5----|
D--0-------0-------0--------0----------------------
   X       X       X        X      X  X X

the intro x2 with is at the end
   1st              2nd
E-----------------|---------------------------|
B-----------------|---------------------------|
G--------2--------|---------------------------|
D----------3------|---------------------------|
A-----------------|----5----3-----------------|
D-----------------|----3----1-----------------|


Verse pt.1
E-------------------------------------------------------------------|
B-------------------------------------------------------------------|
G-------------------------------------------------------------------|
D-------------------------------------------------------------------|
A--5-----3-----6---3----3-5-6-5-3---5-3-5-6--5-3--------------------|
D----0-0---0-0---0----0---------------------------6--0-5-6-8-0-5----|
     X X   X X   X    X                              X       X
E--------------------------------------------------------------|
B--------------------------------------------------------------|
G--------------------------------------------------------------|
D--------------------------------------------------------------|
A-5-----3-----6---3----3-5-6-5-3---5-3-5-6--5-3----------------|
D---0-0---0-0---0----0--------------------------6--0-5-0-5-5*--|
    X X   X X   X    X                             X   X


Verse pt.2
E------------------------------------------------------------------|
B------------------------------------------------------------------|
G------------------------------------------------------------------|
D------------------------------------------------------------------|
A--5-------3---5---3-----3---3---5-------5---3-----------6---5-----|
D----0-0-0---0---0---0-0---0---0---3-3-3---3---3-3-5-5-5---5---5-5-|
     X X X   X   X   X X   X   X    
E--------------------------------------------------------------------|
B--------------------------------------------------------------------|
G--------------------------------------------------------------------|
D--------------------------------------------------------------------|
A--5p3-------3---5---3-----3---3---5-------5---3-----------6---8-----|
D------0-0-0---0---0---0-0---0---0---3-3-3---3---3-3-5-5-5---5-------|
       X X X   X   X   X X   X   X
E-------------------------------------------|
B-------------------------------------------|
G-----------------------------------2-------|
D-3----0------------------------------3-----|
A-1----0------------------------------------|
D---0--0---0--0-0-0-0--0--0--0-0-0-0--------|
    X      X  X X X X  X  X  X X X X

E--------------------------------------------|
B--------------------------------------------|
G-------------------------------------0------|
D-3----0--------------------------------2----| x2
A-1----0-------------------------------------|
D---0--0---0--0-0-0-0--0--0--0-0-0-0---------|
    X      X  X X X X  X  X  X X X X
  
E--------------------------------------------|
B--------------------------------------------|
G--------------------------------------------|
D-3---------3-----------3-----1--------------|
A-1---------5-----------3-----1--------------|
D-----------------------3-----1--------------|

Chorus play  all x2
E--------------------------------------------|
B--------------------------------------------|
G---12-10---9-------12-10---9----------------|
D-0-------0---10--0-------0---10-8-10-12-----| x2
A--------------------------------------------|
D--------------------------------------------|
  X       X       X       X


E-------------------------------------------------------------------|
B-------------------------------------------------------------------|
G------10---10-12-10-----10---10-12-10-----7---7-9-7----7---7-9-7---|
D----8----8------------8----8------------7---7--------7---7-------7-|x2
A-------------------------------------------------------------------|
D--8-----------------8-----------------7-------------7--------------|
   X                 X                 X             X
E--------------------------------------------|
B--------------------------------------------|
G--------------------------------------------|
D-0------------------------------------------|
A-0------------------------------------------|
D-0------------------------------------------|

E--------------------------------------------|
B--------------------------------------------|
G---------7-----8---7---------7--------10----|
D---------7-----8---7---------7--------10----| x3
A-0-0-0-0---0-0---0---0-0-0-0----------------|
D-------------------------------0-0-0-0------|

Back to verse... go through all that again...

Chorus... etc....

Bridge:
E---------------------------------------------|
B---------------------------------------------|
G---------------------------------------------|
D-5-7-----------------------------------------|
A-3-5-6-5--0-3-0-3-5-3------------------------|
D-----6-5--0-3-0-3-----5-3-6-5-3-5------------|
           X X X X  
E--------------------------------------------|
B--------------------------------------------|
G--------------------------------------------|
D--------------------------------------------|
A--------------------------------------------|
D-0-8-7-0-7--0-8-6-0-6-----------------------|
                                             |x4
E--------------------------------------------|
B--------------------------------------------|
G--------------------------------------------|
D-5-7----------------------------------------|
A-3-5-6-5-0-3-0-0-5-3------------------------|
D-----6-5-0-3-0-3-----5-3-6-5-3-5------------|
          X X X X

SOLO
D-15p14---22p20---2022201917191715-14h15p14141417p1514-14-14-14-14----   X2
A------15------17-----------------------------------------------------|
F---------------------------------------------------------------------|
C---------------------------------------------------------------------|
G---------------------------------------------------------------------|
D---------------------------------------------------------------------|



D-19~—-19-p17h19p1719~p15---------19h21h22---------------|
A-------------------------17h19h20--------20p1919p17-17~-|
F--------------------------------------------------------|
C--------------------------------------------------------|
G--------------------------------------------------------|
D--------------------------------------------------------|



D------------------------------------14~-|
A--------------18p17h18p1717p15h17p15----|
F-16-------------------------------------|
C-------14~------------------------------|
G----------------------------------------|
D----------------------------------------|



D-19-----------19-----------20-----------17-141514-----|
A----19201920-----19201920-----20222022-----------1415-|
F ------------17-----------17-----------19--------------|
C------------------------------------------------------|
G------------------------------------------------------|
D------------------------------------------------------|



D-------------------22fb---------------------------------------------------|
A-----------------------------------------------------------15h17p1519-17~-|
F-------------------------------19h21p19h21p1917h19p17h19p17---------------|
C------14p12h14p1214----17h19h20-------------------------------------------|
G--------------------------------------------------------------------------|
D-12h14--------------------------------------------------------------------|
Hold last note until end of first time through bridge, follow timings


Verse pt.2
E------------------------------------------------------------------|
B------------------------------------------------------------------|
G------------------------------------------------------------------|
D------------------------------------------------------------------|
A--5-------3---5---3-----3---3---5-------5---3-----------6---5-----|
D----0-0-0---0---0---0-0---0---0---3-3-3---3---3-3-5-5-5---5---5-5-|
     X X X   X   X   X X   X   X    
E--------------------------------------------------------------------|
B--------------------------------------------------------------------|
G--------------------------------------------------------------------|
D--------------------------------------------------------------------|
A--5p3-------3---5---3-----3---3---5-------5---3-----------6---8-----|
D------0-0-0---0---0---0-0---0---0---3-3-3---3---3-3-5-5-5---5-------|
       X X X   X   X   X X   X   X


Chorus play  all x2
E--------------------------------------------|
B--------------------------------------------|
G---12-10---9-------12-10---9----------------|
D-0-------0---10--0-------0---10-8-10-12-----| x2
A--------------------------------------------|
D--------------------------------------------|
  X       X       X       X


E-------------------------------------------------------------------|
B-------------------------------------------------------------------|
G------10---10-12-10-----10---10-12-10-----7---7-9-7----7---7-9-7---|
D----8----8------------8----8------------7---7--------7---7-------7-|x2
A-------------------------------------------------------------------|
D--8-----------------8-----------------7-------------7--------------|


Outro
D--------------------------------------------------------------------|
A--------------------------------------------------------------------|
F--------------------------------------------------------------------|
C-5----0---------------------5---------------------------------------|
G-3----0-------------------3--2--------------3-1-5-7-7---3-0---------|
D----0-0-0000-0-0000-0-000-----0-000-000-000-3-1-------5-3-0---------|
      X   XXXX X XXXX X XXX     X XXX XXX XXX              
Suggest correction
comments
print report bad tab
5 comments total. Showing first comments.
0 reply
ctuliebs 37 wrote on July 5 2007, 06:41 pm

woah, the solo is way hard to read

0 reply
cslink 151 wrote on October 9 2008, 01:44 pm

dude the solo is way nuts fool.
Nice tab, i'll give u a five star, this combined with one of the other tabs makes it money. so together u guys get a 5*

0 reply
linghoejohnson9 1,076 wrote on December 7 2008, 06:53 pm

nice tab :)

guest
You may want to rate the tab now too:
select rating
Please do not post tabs as comments. Select "correction" instead!