Oops, an error
Loading. Please wait.

Risen Tab

version 1
version 1

Whole song

Interactive

8,918 views 3 this week
3 commentsread comments
1 2 3 4 5
excellent!
x 10
add to favorites
launch autoscroll
font size
0
reset
how to read this tab
guitar tuner
Tab Pro tools
  • play this tab
  • loop segment
  • change instrument
  • show fretboard
  • metronome
Autoscroll
slow
fast
+/-
esc
set tempo
stop
Contributor
Artist : Shadows Fall
Song : Risen
Tuning : Standard EADGBe
Tabbed by Noviz (novizdead@yahoo.com)

This is a great accoustic song. The plucking is really quite easy.
Best of luck

Chord Guide:
       Em    G     C     D2
e|-----0-----3-----0-----0---|
B|-----0-----0-----1-----2---|
G|-----0-----0-----0-----3---|
D|-----2-----0-----2-----2---|
A|-----2-----2-----3-----0---|
E|-----0-----3-----x-----x---|

The song begins with some instrument that basically 'fills' during the whole song

Then comes this arpegio: (at about 0:19)

e|----------------------------------------------------------------|
B|-3------3-----5-----5-----5------3------3-----5-----5-----5-----|
G|----0-----0-----0-----0-----0-------0-----0-----0-----0-----0---|
D|----------------------------------------------------------------|
A|------3-----3-----3-----3-----3-------3-----3-----3-----3-----3-|
E|----------------------------------------------------------------|

e|-2------2-----3-----3------3------2------2-----3-----3------5------|
B|----0-----0-----0-----0------0-------0-----0-----0-----0------0----|
G|------0-----0-----0-----0------0-------0-----0-----0-----0---------|
D|-------------------------------------------------------------------|
A|-------------------------------------------------------------------|
E|-------------------------------------------------------------------|

e|----------------------------------------------------------------|
B|-3------3-----5-----5-----5------3------3-----5-----5-----5-----|
G|----0-----0-----0-----0-----0-------0-----0-----0-----0-----0---|
D|----------------------------------------------------------------|
A|------3-----3-----3-----3-----3-------3-----3-----3-----3-----3-|
E|----------------------------------------------------------------|

e|-2------2-----3-----3------3-------5-----3-----2-----3-----3-2-0--|
B|----0-----0-----0-----0------0-------0-----0-----0-----0----------|
G|------0-----0-----0-----0------0-------0-----0-----0-----0--------|
D|------------------------------------------------------------------|
A|------------------------------------------------------------------|
E|------------------------------------------------------------------|

e|----------------------------------------------------------------|
B|-3------3-----5-----5-----5------3------3-----3h5-------5-------|
G|----0-----0-----0-----0-----0-------0-----0-------0---0---0-----|
D|----------------------------------------------------------------|
A|------3-----3-----3-----3-----3-------3-----3-------3-------3---|
E|----------------------------------------------------------------|

e|-2------2-----3-----3------3-------5-----3-----2-----3-----3-2-0--|
B|----0-----0-----0-----0------0-------0-----0-----0-----0----------|
G|------0-----0-----0-----0------0-------0-----0-----0-----0--------|
D|------------------------------------------------------------------|
A|------------------------------------------------------------------|
E|------------------------------------------------------------------|

e|---------------------------------2-----2----0--|
B|-3------3-----5-----5-----5--------------------|
G|----0-----0-----0-----0-----0------0----0------|
D|-------------------------------------0----0----|
A|------3-----3-----3-----3-----3----------------|
E|-----------------------------------------------|

Now come the chords. plz figure out the strumming pattern yourself:
Em G C D2
Em G C D2
Em G C D2
Em G C D2
  Em

***********************************************************************
e|-2------2-----3-----3------3------2------2-----3-----3------3------|
B|----0-----0-----0-----0------0-------0-----0-----0-----0------0----|
G|------0-----0-----0-----0------0-------0-----0-----0-----0------0--|
D|-------------------------------------------------------------------|
A|-------------------------------------------------------------------|
E|-------------------------------------------------------------------|

e|----------------------------------------------------------------|
B|-3------3-----5-----5-----5------3------3-----5-----5-----5-----|
G|----0-----0-----0-----0-----0-------0-----0-----0-----0-----0---|
D|----------------------------------------------------------------|
A|------3-----3-----3-----3-----3-------3-----3-----3-----3-----3-|
E|----------------------------------------------------------------|

e|-2------2-----3-----3------3-------5-----3-----2-----3-----3-2-0--|
B|----0-----0-----0-----0------0-------0-----0-----0-----0----------|
G|------0-----0-----0-----0------0-------0-----0-----0-----0--------|
D|------------------------------------------------------------------|
A|------------------------------------------------------------------|
E|------------------------------------------------------------------|

e|---------------------------------2-----2----0--|
B|-3------3-----5-----5-----5--------------------|
G|----0-----0-----0-----0-----0------0----0------|
D|-------------------------------------0----0----|
A|------3-----3-----3-----3-----3----------------|
E|-----------------------------------------------|
*************************************************************************

Solo:
e|-10~~~10/12~~~12///~-------------------------------------------------10---10/12---|
B|------------------------------------------------------------------7-----7---------|
G|-------------------------------------------------------4--7-7\5-------------------|
D|-----------------------------------------4-4-2/5---5-7----------------------------|
A|-----------------------0-2--2/5--3---3/5------------------------------------------|
E|--------------------0-------------------------------------------------------------|

e|-15--12\10--8-10--8p7h8p7h875--8-7-----------------------------------10//12~---|
B|--------------------------------------------7-8---8-10-10--12-13-12------------|
G|------------------------------------7/9---9------------------------------------|
D|-------------------------------------------------------------------------------|
A|-------------------------------------------------------------------------------|
E|-------------------------------------------------------------------------------|

I know that this is not perfect. but it fits.

For the rythm, just play the same chords in the same order: Em G C D2

Outro:
e|-2------2-----3-----3------3-------5-----3-----2-----3-----3-2-0--|
B|----0-----0-----0-----0------0-------0-----0-----0-----0----------|
G|------0-----0-----0-----0------0-------0-----0-----0-----0--------|
D|------------------------------------------------------------------|
A|------------------------------------------------------------------|
E|------------------------------------------------------------------|

e|---------------------------------2-----2----0--|
B|-3------3-----5-----5-----5--------------------|
G|----0-----0-----0-----0-----0------0----0------|
D|-------------------------------------0----0----|
A|------3-----3-----3-----3-----3----------------|
E|-----------------------------------------------|

TabLegend:
h - Hammer On
p - Pull Off
~ - Vibato
/, \ - Slide from, to ("nowhere")
comments
print report bad tab
3 comments total.
0 reply
Homerun Hero wrote on June 6 2009, 01:57 pm

wow sounds good, good job!!!

0 reply
metalkamikazee wrote on February 13 2010, 11:57 pm

This song is actually called lead me home but good tab any way 5/5

0 reply
hunter6571 wrote on June 24 2010, 04:08 pm

D2 sounds like shit....lol but the rest is awesome. i'd like to know what that chord is though.

I want to post or [tab]
guest
You may want to rate the tab now too:
select rating
Please do not post tabs as comments. Select "correction" instead!