Oops, an error
Loading. Please wait.

Stillness Tab

version 2
version 2

Intro

Whole song

Interactive

1,071 views 1 this week
2 commentsread comments
1 2 3 4 5
please rate
add to favorites
launch autoscroll
font size
0
reset
how to read this tab
guitar tuner
Autoscroll
slow
fast
+/-
esc
set tempo
stop
Help us to improve Ultimate-Guitar.com Take our survey!
×
Difficulty
novice
This is just the intro with only two guitars in it.


E-----------------------------------|
B-----7--------6-------6-------5--5-|
G---6---6---10---10--7---7---6--6---|
D-----------------------------------|
A-----------------------------------|
D-----------------------------------|

E------------------------6---5-------|
B-----7--------6-------5---5---5---5-|
G---6---6---10---10--6-----------6---|
D------------------------------------|
A------------------------------------|
D------------------------------------|


Then while that is playing the heavy part kicks in about halfway through the intro


E-----------------------------------|
B-----------------------------------|
G-----------------------------------|
D--0------8-3-10---0----------------|
A--0------8-3-10---0----------------|
D--0------8-3-10---0----------------|
Suggest correction
Give kudos to tab author, rate the tab!
1 2 3 4 5
comments
print report bad tab
2 comments total.
+1 reply
guitarman47 132 wrote on July 5 2007, 08:35 pm

shadows fall uses D standard (D G C F A D) low to high

-1 reply
BeForeIfOrGet 10 wrote on July 14 2007, 08:20 pm

not usually..maybe for this song but i dont think so

guest
You may want to rate the tab now too:
select rating
Wanna post a correction for this tab? Suggest correction