Oops, an error
Loading. Please wait.

The Great Collapse Tab

version 1
version 1

Whole song

Interactive

3,353 views 3 this week
no commentswrite comment
1 2 3 4 5
excellent!
x 4
add to favorites
launch autoscroll
font size
0
reset
how to read this tab
guitar tuner
Tab Pro tools
  • play this tab
  • loop segment
  • change instrument
  • show fretboard
  • metronome
Autoscroll
slow
fast
+/-
esc
set tempo
stop
Contributor
Difficulty
novice
-------------------------------------------------------------------------------
                             "The Great Collapse" --- Shadows Fall
-------------------------------------------------------------------------------


Tabbed by: [travis]
Email: syn_gates_punk14@msn.com

Tuning: Standard Tuning (E A D G B E) [For all guitars]

*There's a capo being used, and I think it's on the first fret only.

Key:
h = hammer on
p = pull off

Guitars 1 and 2:
e|--------------------------------------------------------------------------------------------|
B|-0h1------1p0--------0---0----------0------0h1------1p0--------------------------------3--0-|
G|-2-------------2-----0---0----------0--0---2-------------2-----0-----------0-----------0--0-|
D|-2-----2-----------------2-------------0---2-------------------0--------------0--2--2-----0-|
A|-0----------------0------2-----------------0-----0----------0------0h2--2--------3----------|
E|-------------------------0-------0---------------------------------0------------------------|

+++++++++++++++++++++++++++++++++++++++++++++++++
Guitar 1:
e|-------------------------------------------------------------------------------------------|
B|-0h1------1p0--------0---0-----------0---------------3-----------------------3-------------|
G|-2-------------2-----0---0-----------0------------0-----0-----------------0-----0----------|
D|-2-----2-----------------2--------2-----0------0-----------0-----0-----0-----------0-----0-|
A|-0-----0----------0------2--------2---------2--------------------------0--------------0----|
E|-------------------------0--------0---------3-----------------3-----2-----------------2----|

Guitar 2:
e|-------------------------------------------------------------------------------------------|
B|-0h1-----1p0--------0---0------------0---------------3-----3-----3----------3-----3------3-|
G|-2------------2-----0---0------------0---------------0-----0-----0----------0-----0------0-|
D|-2----2-----------------2---------2-----0---0-----0--0-----0--0--0---0---0--0-----0--0---0-|
A|-0----0----------0------2---------2---------2-----2-----------2------0---0-----------0-----|
E|------------------------0---------0---------3-----3-----------3------2---2-----------2-----|

+++++++++++++++++++++++++++++++++++++++++++++++++
Guitar 1:
e|--------------------------------------------------------------------------------------------|
B|-0h1------1p0--------0---0----------0------0h1------1p0--------------------------------3--0-|
G|-2-------------2-----0---0----------0--0---2-------------2-----0-----------0-----------0--0-|
D|-2-----2-----------------2-------------0---2-------------------0--------------0--2--2-----0-|
A|-0----------------0------2-----------------0-----0----------0------0h2--2--------3----------|
E|-------------------------0-------0---------------------------------0------------------------|

Guitar 2:
e|----------------------------------------------------------------------------------|
B|----------------------------------------------------------------------------------|
G|-----------0-----------0----------------------0-----------0---------0-------------|
D|-0h2-------0-----0-----0--------------0h2-----0-----0-----0------------0--2-----0-|
A|-0-----0------------0------2----------0----0-----------0------0h2---------3-------|
E|---------------------------0----------------------------------0-------------------|

Guitar 3:
e|---------------------------------------------------------------------|
B|-0h1----1p0-----0--1--0------------0h1-----1p0-----0--1--0---0-------|
G|-------------2----------------------------------2---------------2--0-|
D|---------------------------------------------------------------------|
A|---------------------------------------------------------------------|
E|---------------------------------------------------------------------|

++++++++++++++++++++++++++++++++++++++++++++++++++
Guitar 1:
e|-------------------------------------------------------------------------------------------|
B|-0h1------1p0--------0---0-----------0---------------3-----------------------3-------------|
G|-2-------------2-----0---0-----------0------------0-----0-----------------0-----0----------|
D|-2-----2-----------------2--------2-----0------0-----------0-----0-----0-----------0-----0-|
A|-0-----0----------0------2--------2---------2--------------------------0--------------0----|
E|-------------------------0--------0---------3-----------------3-----2-----------------2----|

Guitar 2:
e|------------------------------------------------------------------------------------|
B|-------------------------------------------3-------------------------3--------------|
G|---------0----------0-------------------0-----0-------------------0-----0-----------|
D|-0h2-----0----0-----0----------------0-----------0------0------0-----------0------0-|
A|-0----0----------0------2---------2----------------------------0---------------0----|
E|------------------------0---------3------------------3------2------------------2----|

Guitar 3:
e|---------------------------------------------------------------------------|
B|-0h1----1p0-----0--1--0---------1-----3----1h3p1--0------------------------|
G|-------------2---------------------------------------2--------4---2h4p2--0-|
D|---------------------------------------------------------------------------|
A|---------------------------------------------------------------------------|
E|---------------------------------------------------------------------------|

++++++++++++++++++++++++++++++++++++++++++++++++++++
Guitars 1 and 2:
e|-----------------------------------------------------------------------------------------------|
B|-----------------------------------------------------------------------------------------------|
G|-------0--------0--------------0--------0--------------0--------0--------------0--------0------|
D|----2-----2--------2--------4-----4--------4--------2-----2--------2--------4-----4--------4---|
A|-3-----------3--------3--5-----------5--------5--3-----------3--------3--5-----------5--------5|
E|-----------------------------------------------------------------------------------------------|

Guitar 3:
e|-----------------------------------------------------------------------------------------------|
B|-----------------------------------------------------------------------------------------------|
G|---------------------------------------------------------------------------------------2-------|
D|-2-----------------------4-----5----4----0---2---------------------------4-----5----4---------|
A|-----------------------------------------------------------------------------------------------|
E|-----------------------------------------------------------------------------------------------|

++++++++++++++++++++++++++++++++++++++++++++++++++++
Guitars 1 and 2:
e|--------------------------------------------------------------------------|
B|--------------------------------------------------------------------------|
G|--------0--------0---------------0--------0--------------0--------0-------|
D|----2------2--------2---------4-----4--------4--------2-----2--------2----|
A|-3------------3--------3---5-----------5--------5--3-----------3--------3-|
E|--------------------------------------------------------------------------|

Guitar 3:
e|--------------------------------------------------------------------------|
B|--------------------------------------------------------------------------|
G|--------------------------------------------------------------------------|
D|-2---2--4--5---2-----------4---------5-----4------0---2-------4-----5---2-|
A|--------------------------------------------------------------------------|
E|--------------------------------------------------------------------------|

You pretty much play the other riffs over the piano part.
That's it. Comment and rate it.
[travis]
comments
print report bad tab
I want to post or [tab]
guest
You may want to rate the tab now too:
select rating
Please do not post tabs as comments. Select "correction" instead!