Oops, an error
Loading. Please wait.

The Light That Blinds Tab

version 5
version 5
18,952 views 1 this week
5 commentsread comments
1 2 3 4 5
accurate
x 8
add to favorites
launch autoscroll
font size
0
reset
how to read this tab
guitar tuner
Autoscroll
slow
fast
+/-
esc
set tempo
stop
Help us to improve Ultimate-Guitar.com Take our survey!
×
Author
Tuning
D A D G B E
Shadows Fall
The Light That Blinds
Enjoy! Any suggestions e-mail me at guitarguyseventeen@yahoo.com

    Bbm   F#      G#        Bbm     Bbm     F#      G#        Bbm
e 1-----1-2-----2-----4---4---------1-----1-2-----2-----4---4---------|
B --2-------2-------------------------2-------2-----------------------|
G ----3-------3---5h6---6---5-3---2-----3-------3---5h6---6---5-3---2-|
D --------4-------6h6-----------3-----------4-------6h6-----------3---|
A 1---------------------------------1---------------------------------|
D --------------------------------------------------------------------|

e ----------------------------------------------------|
B ----------------------------------------------------|
G 2/3-5/6-5h6-5---8/10-8-6-5-3-5/6-5h6-5---8/10-8-6-5-|
D --------------6------------------------6------------|
A ----------------------------------------------------|
D ----------------------------------------------------|

e ----------------------------------------------------|
B 2-4/6-4/6-4---7/-9-7-6-4-2-4/6-4/6-4---7/-9-7-6-4-2-|
G 3-5/6-5/6-5-5-8/10-8-6-5-3-5/6-5h6-5-5-8/10-8-6-5-3-| Let ring
D ------------6------------------------6--------------|
A ----------------------------------------------------|
D ----------------------------------------------------|

  D                          D
e ------------------------------------------------------|
B 7--------------------------7--------------------------|
G 7--------------------------7--------------------------|
D 7--------------------------7--------------------------|
A 5--------------------------5--------------------------|
D 0--------------------------0--------------------------|

Play extremely fast
e ------------13h17p13-------------------13h17p13-------|
B ---------15----------15-------------15----------15----|
G ------------------------14-------------------------14-|
D 12h14h15-------------------12h14h15-------------------|
A ------------------------------------------------------|
D ------------------------------------------------------|

  D                       D
e -----------------------------------------------------------|
B 7-----------------------7----------------------------------|
G 7-----------------------7----------------------------------|
D 7-----------------------7----------------------------------|
A 5-----------------------5----------------------------------|
D 0-----------------------0----------------------------------|

e ------------13h17p13----15h17h18p17p15----------------------|
B ---------15----------15----------------17p15p14-------------|
G ------------------------------------------------15p14p12h14-|
D 12h14h15----------------------------------------------------|
A ------------------------------------------------------------|
D ------------------------------------------------------------|
Suggest correction
What's this?
You can suggest a correction to this tab. Community and Mods will review your correction and vote to approve or reject it.
comments
print report bad tab
5 comments total. Showing first comments.
0 reply
Headbanger94 89 wrote on August 21 2007, 08:56 pm

it's pretty good, i think. i'm no expert though i could be wrong, anyways, i rated five stars.

0 reply
Headbanger94 89 wrote on August 21 2007, 09:18 pm

after the fast part...
|--------------------------------------------------------------|
|--------------------------------------------------------------|
|--------------------------------------------------------------|
|----------------4444------------------------------------------|
|--------8888------------------------11111111----111144443333--|
|88886666----8888----4444666688881111--------1111------------66|

Play that twice then comes guitar 2 along with twice more.
I think guitar 2 is something like this...

|------------------------------------------------------------------|
|------------------------------------------------------------------|
|--------(Eleven)----7777------------------------------------------|
|--------11111111------------------------44444444----444477776666--|
|99997777--------9999----5555777799992222--------2222------------77|
|------------------------------------------------------------------|

0 reply
Headbanger94 89 wrote on September 23 2007, 04:41 pm

my bad guitar 2 is the the same as guitar 1 but 2 steps higher.
for instance, guitar 2 starts on fret 12.

guest
You may want to rate the tab now too:
select rating
Please do not post tabs as comments. Select "correction" instead!