Oops, an error
Loading. Please wait.

The Light That Blinds bass

version 3
version 3
1,147 views 1 this week
1 commentread comment
1 2 3 4 5
1 last vote to show rating
add to favorites
×
Save as Personal and add changes to this tab that will be seen only by you. Learn more ›
×
You can save this tab as Personal to edit and correct it or add notes. All changes will be seen only by you. Learn more »
launch autoscroll
font size
0
reset
guitar tuner
backing track
0:00
0:00
edit
Autoscroll
slow
fast
+/-
esc
set tempo
stop
                                The Light That Blinds
                                     Shadows Fall

                                    By Rhys Bailey

Bass Tuning: Drop D (DADG)

Intro:
|-------------------|-------------------|-------------------|
|-------------------|-------------------|-------------------|
|-------------------|-------------------|-------------------|
|--0~---------------|--~----------------|--~----------------|

|-------------------|-------------------|-------------------|-------------------|
|-------------------|--0~---------------|--~----------------|--~----------------|
|-------------------|--5~---------------|--~----------------|--~----------------|
|--~----------------|-------------------|-------------------|-------------------|

|----------------------|----------------------|----------------------|
|--~-------------------|----------------------|----------------------|
|--~-------------------|------------8---------|--9--------------3----|
|------------0---------|--8----6---------8----|-------4----6---------|

|----------------------|----------------------|----------------------|
|----------------------|----------------------|----------------------|
|-------1----1---------|--1----4----3---------|------------8---------|
|--1--------------3----|-----------------6----|--8----6---------8----|

|----------------------|----------------------|----------------------|
|----------------------|----------------------|----------------------|
|--9--------------3----|-------1----1---------|--1----4----3----3----|
|-------4----6---------|--1--------------3----|----------------------|

|----------------------|----------------------|----------------------|
|----------------------|----------------------|----------------------|
|------------8---------|--9--------------3----|-------1----1---------|
|--8----6---------8----|-------4----6---------|--1--------------3----|

|----------------------|----------------------|----------------------|
|----------------------|----------------------|----------------------|
|--1----4----3---------|------------8---------|--9--------------3----|
|-----------------6----|--8----6---------8----|-------4----6---------|

|----------------------|----------------------|--------------------|
|----------------------|----------------------|--------------------|
|-------1----1---------|--1----4----3----3----|--1--------1--------|
|--1--------------3----|----------------------|--------------------|

                        Verse:
|-----------------------|--------------------------|--------------------------|
|-----------------------|--------------------------|--------------------------|
|--1--------------------|--1-----------------------|--1-----------------------|
|----------3----5-------|--------0--1-----2--4-----|--------0--1-----2--4-----|

|--------------------------|--------------------2--3--|
|--2-----1--1--------------|--------------1--3--------|
|-----------------5--3-----|--3--1--0--1--------------|
|--------------------------|--------------------------|
 
|--------------------------|--------------------------|
|--------------------------|--------------------------|
|--1-----------------------|--1-----------------------|
|--------0--1-----2--4-----|--------0--1-----2--4-----|
  
|---------------------------|-------------------------|
|---------------------------|-------------------------|
|--------8-----8--10--------|-------------------------|
|--0--0-----0---------0--1--|-----1-----1-----7--8----|

|--------------------------|--------------------------|
|--------------------------|--------------------------|
|--1-----------------------|--1-----------------------|
|--------0--1-----2--4-----|--------0--1-----2--4-----|
 
|--------------------------|--------------------2--3--|
|--2-----1--1--------------|--------------1--3--------|
|-----------------5--3-----|--3--1--0--1--------------|
|--------------------------|--------------------------|

|--------------------------|--------------------------|
|--------------------------|--------------------------|
|--1-----------------------|--1-----------------------|
|--------0--1-----2--4-----|--------0--1-----2--4-----|

Pre-Chorus:
|---------------------------|-------------------------|
|---------------------------|-------------------------|
|--------8-----8--10--------|-------------------------|
|--0--0-----0---------0--1--|-----1-----1-----7--8----|
  
|---------------------------|-------------------------|
|---------------------------|-------------------------|
|--------8-----8--10--------|-------------------------|
|--0--0-----0---------0--1--|-----1-----1-----7--8----|
 
|---------------------------|-------------------------|
|---------------------------|-------------------------|
|--------8-----8--10--------|-----------------5--5----|
|--0--0-----0---------0--1--|-----1-----1-------------|

|---------------------------|-------------------------|
|---------------------------|-------------------------|
|--------8-----8--10--------|-------------------------|
|--0--0-----0---------0--1--|-----1-----1-----7--8----|

                                                     Chorus:
|---------------------------|------------------------|----------------------|
|---------------------------|------------------------|----------------------|
|--------8-----8--10--------|------------------------|--1-------------------|
|--0--0-----0---------0--1--|-----1-----1------------|----------0-----------|
 
|--------------------------|------------------------|
|--------------------------|------------------------|
|--------------------------|--3-------5-------5--3--|
|--0--0--0--0--0--0--0--0--|------------------------|

|--------3-7-5-3--------------|--------------------------|
|--3--5-----------5-3---------|-----3--3-----------------|
|---------------------5--3-1--|--1--------3-----------1--|
|-----------------------------|--------------------------|

|----------------------------|---------------------|--7-----6-----5-----4-----|
|--3-3-3-3-/5--5-------------|------------------5--|-----5-----5-----5-----5--|
|-------------------------5--|-~-------------------|--------------------------|
|----------------------------|---------------------|--------------------------|

|----------------------|--------------------------|-------------------------|
|----------------------|--------------------------|-------------------------|
|--1-------------------|--------------5--5--5--5--|--3-------5-------5--5-5-|
|----------0-----------|--0--0--0--0--------------|-------------------------|

|---------------------------|--------------------------|
|-------3--2----------------|-----3--3-----------------|
|--5-5--------5--1--1--1----|--1--------3-----------1--|
|---------------------------|--------------------------|

|----------------------------|---------------------|------------------------|
|--3-3-3-3-/5--5-------------|---------------3--5--|--7--5-----5~-----------|
|-------------------------5--|-~-------------------|------------------------|
|----------------------------|---------------------|------------------------|

Verse: 
|--------------------------|--------------------------|
|--------------------------|--------------------------|
|--1-----------------------|--1-----------------------|
|--------0--1-----2--4-----|--------0--1-----2--4-----|

|--------------------------|--------------------2--3--|
|--2-----1--1--------------|--------------1--3--------|
|-----------------5--3-----|--3--1--0--1--------------|
|--------------------------|--------------------------|

|--------------------------|--------------------------|
|--------------------------|--------------------------|
|--1-----------------------|--1-----------------------|
|--------0--1-----2--4-----|--------0--1-----2--4-----|
 
|---------------------------|-------------------------|
|---------------------------|-------------------------|
|--------8-----8--10--------|-------------------------|
|--0--0-----0---------0--1--|-----1-----1-----7--8----|

|--------------------------|--------------------------|
|--------------------------|--------------------------|
|--1-----------------------|--1-----------------------|
|--------0--1-----2--4-----|--------0--1-----2--4-----|

|--------------------------|--------------------2--3--|
|--2-----1--1--------------|--------------1--3--------|
|-----------------5--3-----|--3--1--0--1--------------|
|--------------------------|--------------------------|

|--------------------------|--------------------------|
|--------------------------|--------------------------|
|--1-----------------------|--1-----------------------|
|--------0--1-----2--4-----|--------0--1-----2--4-----|

Pre-Chorus: 
|---------------------------|-------------------------|
|---------------------------|-------------------------|
|--------8-----8--10--------|-------------------------|
|--0--0-----0---------0--1--|-----1-----1-----7--8----|

|---------------------------|-------------------------|
|---------------------------|-------------------------|
|--------8-----8--10--------|-------------------------|
|--0--0-----0---------0--1--|-----1-----1-----7--8----|

|---------------------------|-------------------------|
|---------------------------|-------------------------|
|--------8-----8--10--------|-----------------5--5----|
|--0--0-----0---------0--1--|-----1-----1-------------|

|---------------------------|-------------------------|
|---------------------------|-------------------------|
|--------8-----8--10--------|-------------------------|
|--0--0-----0---------0--1--|-----1-----1-----7--8----|
 
                                                     Chorus:
|---------------------------|------------------------|----------------------|
|---------------------------|------------------------|----------------------|
|--------8-----8--10--------|------------------------|--1-------------------|
|--0--0-----0---------0--1--|-----1-----1------------|----------0-----------|

|--------------------------|------------------------|
|--------------------------|------------------------|
|--------------------------|--3-------5-------5--3--|
|--0--0--0--0--0--0--0--0--|------------------------|

|--------3-7-5-3--------------|--------------------------|
|--3--5-----------5-3---------|-----3--3-----------------|
|---------------------5--3-1--|--1--------3-----------1--|
|-----------------------------|--------------------------|
   
|----------------------------|---------------------|--7-----6-----5-----4-----|
|--3-3-3-3-/5--5-------------|------------------5--|-----5-----5-----5-----5--|
|-------------------------5--|-~-------------------|--------------------------|
|----------------------------|---------------------|--------------------------|

|----------------------|--------------------------|-------------------------|
|----------------------|--------------------------|-------------------------|
|--1-------------------|--------------5--5--5--5--|--3-------5-------5--5-5-|
|----------0-----------|--0--0--0--0--------------|-------------------------|
 
|---------------------------|--------------------------|
|-------3--2----------------|-----3--3-----------------|
|--5-5--------5--1--1--1----|--1--------3-----------1--|
|---------------------------|--------------------------|
 
|----------------------------|-------------------|------------------------|
|--3-3-3-3-/5--5-------------|-------------------|--5--5--5--5--5--5------|
|-------------------------5--|-~-----------------|------------------------|
|----------------------------|-------------------|------------------------|

Bridge:
|------------------------|------------------------|------------------------|
|------------------------|------------------------|------------------------|
|------------------------|--3----2----------------|------------------------|
|--7----6----0--0--0--0--|------------0--0--0--0--|--7----6----0--0--0--0--|
 
|----------------------|------------------------|------------------------|
|----------------------|------------------------|------------------------|
|----------------------|------------------------|--3----2----------------|
|--5------5---8--------|--7----6----0--0--0--0--|------------0--0--0--0--|
 
|------------------------|----------------------|------------------------|
|------------------------|----------------------|------------------------|
|------------------------|----------------------|------------------------|
|--7----6----0--0--0--0--|--5------5---8--------|--7----6----0--0--0--0--|
   
|------------------------|------------------------|----------------------|
|------------------------|------------------------|----------------------|
|--3----2----------------|------------------------|----------------------|
|------------0--0--0--0--|--7----6----0--0--0--0--|--5------5---8--------|
 
|------------------------|------------------------|------------------------|
|------------------------|------------------------|------------------------|
|------------------------|--3----2----------------|------------------------|
|--7----6----0--0--0--0--|------------0--0--0--0--|--7----6----0--0--0--0--|

|----------------------|-------------------|---------------------|
|----------------------|-------------------|---------------------|
|----------------------|--1~---------------|-~----------------4~-|
|--5------5---8--------|-------------------|---------------------|
         
|-------------------|-----------------------|-------------------|
|-------------------|-----------------------|-------------------|
|-~-----------------|-~------------------1~-|-~-----------------|
|-------------------|-----------5--3--------|-------------------|

|---------------------|---------------------|-------------------|
|---------------------|---------------------|-------------------|
|-~-------------------|---------------------|-------------------|
|------------------3--|-~----------------5--|-~-----------------|

Guitar Solo:
|--------------------------|--------------------------|
|--------------------------|--------------------------|
|--0--3--2--1--3--2--1-----|-----3--2--1--3--2--1-----|
|-----------------------6--|-----------------------5--|

|--------------------------|------------------------|--------------------------|
|--------------------------|------------------------|--------------------------|
|-----3--2--1--3--2--1-----|------------------------|--0--3--2--1--3--2--1-----|
|--------------------------|------3--3--3----5------|-----------------------6--|

|--------------------------|--------------------------|------------------------|
|--------------------------|--------------------------|------------------------|
|-----3--2--1--3--2--1-----|-----3--2--1--3--2--1-----|------------------------|
|-----------------------5--|-----------------------3--|---------3--3----5------|

|------------------------|------------------------|---------------------|
|------------------------|------------------------|---------------------|
|--1----1----1--1--1--4--|-------4----4--4--4-----|---------------------|
|------------------------|---------------------1--|------------------3--|

|--------------------------|---------------------------|
|--------3--3--1--3--1-----|--------3-----3------------|
|-----1-----------------3--|--1--1-----1-----1--1---4--|
|--------------------------|---------------------------|

|--------------------------|--4-----3------------3--3--|-----4--4---------------|
|-----7-----6--------1--1--|-----1-----1---------------|--------------1---------|
|--4-----4-----4--4--------|---------------------------|---------------------1--|
|--------------------------|---------------------------|------------------------|

|------------------------|------------------------|------------------------|
|------------------------|------------------------|------------------------|
|--1----1----1--1--1--4--|-------4----4--4--4-----|------------------------|
|------------------------|---------------------1--|-------1----1--1--1--3--|

|-----------------------|------------------------|------------------------|
|-----------------------|------------------------|------------------------|
|--------------------1--|-------1----1--1--1--4--|-------4----4--4--4-----|
|-----3----3----3-------|------------------------|---------------------1--|

                                               Interlude:
|------------------------|---------------------|----------------------|
|------------------------|---------------------|----------------------|
|------------------------|---------------------|--5--------------8----|
|-------1----1--1--1--1--|-~-------------------|-----------0--0-------|

|------------------------|-----------------------|---------------------------|
|------------------------|-----------------------|---------------------------|
|--------3----------3----|--5--------------------|---------------------------|
|--0--0-------0--0-------|-----------0--0--0--0--|--0-0-0--0--0--0--0--0--0--|

|----------------------|------------------------|-----------------------|
|----------------------|------------------------|-----------------------|
|--5--------------8----|--------3----------3----|--5-----------------3--|
|-----------0--0-------|--0--0-------0--0-------|-----------0--0--0-----|

|-------------------------|----------------------|------------------------|
|-------------------------|----------------------|------------------------|
|--5--3-------------------|--5--------------8----|--------3----------3----|
|--------5--3--5--3~------|-----------0--0-------|--0--0-------0--0-------|

|-----------------------|-------------------------|----------------------|
|-----------------------|-------------------------|----------------------|
|--5--------------------|-------------------------|--5--------------8----|
|-----------0--0--0--0--|--0-0-0--0--0--0---------|-----------0--0-------|

|------------------------|-----------------------|-------------------------|
|------------------------|-----------------------|-------------------------|
|--------3----------3----|--5-----------------3--|--5--3----------------3--|
|--0--0-------0--0-------|-----------0--0--0-----|--------5--3--5--3-------|

|--------------------------|-------------------------|--------------------------|
|--------------------------|-------------------------|--------------------------|
|--5--3-----------------3--|--5--3----------------3--|--5--3--------------------|
|--------5--3--5--6--0-----|--------5--3--5--3-------|--------5--3--5--6--5--0--|

                                             Chorus:
|-----------------------|--------------------|----------------------|
|-----------------------|--------------------|----------------------|
|-------0-------3-------|--5-----------------|--1-------------------|
|-----------------------|--------------------|----------0-----------|

|--------------------------|------------------------|
|--------------------------|------------------------|
|--------------------------|--3-------5-------5--3--|
|--0--0--0--0--0--0--0--0--|------------------------|

|--------3-7-5-3--------------|--------------------------|
|--3--5-----------5-3---------|-----3--3-----------------|
|---------------------5--3-1--|--1--------3-----------1--|
|-----------------------------|--------------------------|

|----------------------------|---------------------|--7-----6-----5-----4-----|
|--3-3-3-3-/5--5-------------|------------------5--|-----5-----5-----5-----5--|
|-------------------------5--|-~-------------------|--------------------------|
|----------------------------|---------------------|--------------------------|

|----------------------|--------------------------|-------------------------|
|----------------------|--------------------------|-------------------------|
|--1-------------------|--------------5--5--5--5--|--3-------5-------5--5-5-|
|----------0-----------|--0--0--0--0--------------|-------------------------|

|---------------------------|--------------------------|
|-------3--2----------------|-----3--3-----------------|
|--5-5--------5--1--1--1----|--1--------3-----------1--|
|---------------------------|--------------------------|

                                                 Outro:
|----------------------------|-------------------|-------------------------|
|--3-3-3-3-/5--5-------------|-------------------|-------------------------|
|-------------------------5--|-~-----------------|-----------------3----3--|
|----------------------------|-------------------|--0--0--0--0--0----------|

|-------------------------|--------------------------|-------------------------|
|-------------------------|--------------------------|-------------------------|
|--5--3----------------3--|--5--3-----------------3--|--5--3----------------3--|
|--------5--3--5--3-------|--------5--3--5--6--0-----|--------5--3--5--3-------|

|--------------------------|-------------------------|--------------------------|
|--------------------------|-------------------------|--------------------------|
|--5--3-----------------3--|--5--3----------------3--|--5--3-----------------3--|
|--------5--3--5--6--0-----|--------5--3--5--3-------|--------5--3--5--6--0-----|

|-------------------------|-------------------------||
|-------------------------|-------------------------||
|--5--3----------------3--|--5--3-------------------||
|--------5--3--5--3-------|--------5--3--5--6--0----||


Tablature Legend
----------------
~ - tied note from previous note or previous bar
/ - slide into from below or out of upwards
\ - slide into from above or out of downwards

            
            
Suggest correction
Creating personal tab
Creating personal tab
You can edit any tab online and save it as your Personal.

You can edit, replace or remove any tab part or add personal notes – all changes will be seen only by you.

Personal tabs can be accessed anytime from any device, even offline.
Learn more »
Give kudos to tab author, rate the tab!
1 2 3 4 5
comments
print report bad tab
1 comment total.
0 reply
ZerotigerX 10 Sep 02, 2009 07:31 PM

Intro is great but the rest of the song is very inaccurate.

guest
You may want to rate the tab now too:
select rating
Wanna post a correction for this tab? Suggest correction