Oops, an error
Loading. Please wait.

The Light That Blinds Tab

version 4
version 4
32,204 views 36 this week
2 commentsread comments
1 2 3 4 5
x 4
add to favorites
launch autoscroll
font size
0
reset
how to read this tab
guitar tuner
Autoscroll
slow
fast
+/-
esc
set tempo
stop
Help us to improve Ultimate-Guitar.com Take our survey!
×
Author
Difficulty
intermediate
The Light That Blinds by Shadows Fall
Tabbed By Justin Royster
Tabbed for Ultimate-Guitar.com

Tabbers note-pretty hard song,just practice.

INTRO(acoustic)
(0:00-0:09)
d--3----4--------6--------------------------|
a---4-4--4-4--3h4-4-3-----------------------|
f----5----5------------7--5-4---------------|x2
c------------------------5------------------|
g--3----6-----------------------------------|
D-------------------------------------------|


(0:10-0:20)
d-------------------------------------------|
a-------------------------------------------|
f--5-7-8-7-8-7---10/12-10-8-7-5-------------|x2
c--------------8----------------------------|
g-------------------------------------------|
D-------------------------------------------|


(0:21-0:31)
d----------------------------------------------|
a--4---6---8---6--8--6------9--11--9---8--6--4-|
f--5---7---8---7--8--7--7---10/12--10--8--7--5-|x2
c-----------------------8----------------------|
g----------------------------------------------|
D----------------------------------------------|

INTRO LEAD
(0:33-0:44)
d-------12---19-15--15----------------------   -----|
a------12---------17------------------------        |
f-----12------------------------------------x3      |
c--14---------------------------------------        |
g-------------------------------------------        |
D-------------------------------------------        |
                                                    |
                                                    |
THEN ON THE FOURTH TIME                             |DO ALL TWICE,ON SECOUND
(0:37-&-0:42)                                       |  FOURTH TIME END ON
d-------12---19-15--15-19/20-19-17-15--15vibrato~   |    THIS:f---17---.
a------12---------17------------------------        |
f-----12------------------------------------x1      |
c--14---------------------------------------        |
g-------------------------------------------        |
D-------------------------------------------        |
                                               -----|
PRE-VERSE
(0:45-1:05)
d--------------------------------------------|
a--------------------------------------------|
f--------------------------------------------|
c-----5-6------------------------------------|x4(guitar one)
g--------------5----3-3----3--5h6p5----------|
D--8-6---8--4-6----1------1----------6-------|

(0:55-1:05)
d----------------------------------------------------------|
a----------------------------------------------------------|
f----------------------------------------------------------|
c------5-6-----0----1-1---1-----------------x2(guitar two)-|
g--6-5--6---3-5--------------3-5-3-5-----------------------|
D-----------------1-----1----------------------------------|


(1:06-1:07)
d-------------------------------------------|
a-------------------------------------------|
f-------------------------------------------|
c--5-----5-----5----------------------------|
g--3-----3-----3-5-6------------------------|
D----3-4---3-4---5-6------------------------|

VERSE
(1:08-1:12),(1:18-1:23)
d-----------------------------------------------                     ]
a-----------------------------------------------                     ]
f-----------------------------------------------(with first end riff)]
c------------------2--3--------------3----4/5---                     ]
g--3--2--0-3--2--0--00-00-5-0----3-5--5---5/7---                     ]
D-0-00-00-0-00-00-0-----------3-5---------------                     ]
                                                                     ]
                                                 [ main verse riffs  ]x2
(1:13-1:29)                                                          ]
d------------------------------------------------------------------  ]
a------------------8-8/10-------8/10-------------------------------  ]
f------------------7-7/9--9-7-9-7/9------------(with second end riff)]
c------------------5-5/7--7-5-7-5/7--------------------------------  ]
g--3--2--0-3--2--0-------------------------------------------------  ]
D-0-00-00-0-00-00-0------------------------------------------------- ]


(1:24-1:39)
d-------------------------------------------|
a------------------8-8/10-------8/10--------|
f------------------7-7/9--9-7-9-7/9---------|
c------------------5-5/7--7-5-7-5/7---------|
g--3--2--0-3--2--0--------------------------|
D-0-00-00-0-00-00-0-------------------------|

d-------------------------------------------|
a--8-8/10-------8/10---8-8/10---------------|
f--7-7/9--9-7-9-7/9----7-7/9--9-7-9---------|
c--5-5/7--7-5-7-5/7----5-5/7--7-5-7-5-------|
g-------------------------------------------|
D-------------------------------------------|

d-------------------------------------------|
a--8-8/10-------8/10---8-8/10---------------|
f--7-7/9--9-7-9-7/9----7-7/9--9-7-9---------|
c--5-5/7--7-5-7-5/7----5-5/7--7-5-7---------|
g-------------------------------------------|
D-------------------------------------------|

CHORUS
(1:40-2:00)
d-----------------3333-5555-5---------------                  ------------|
a-----------------3333-5555-5---------------                  ------------|
f--5------7-7/9---5555-7777-6---------------x2 then end with  --------*9*-|
c--5-2----7-7/9---5555-7777-7---------------                  --7-5-------|
g--3-2----5-5/7---3333-5555-7---------------                  --5-3-------|
D----0----5-5/7---3333-5555-5---------------                  ------0-----|

(2:01-2:53)
*REPEAT ABOVE FOR VERSE AND CHORUS*

(2:52-2:53)
d------------------------|
a------------------------|
f------------------------| AT END OF 2nd CHOURUS BEFORE
c--77777/3---------------|           BRIDGE
g--77777/3---------------|
D--55555/5---------------|


BRIDGE
(2:54-3:14)
d------------------------------------------|
a----------------------------------5-8-----|
f--4-3--------7-6-------4-3--------6-9-----|x4
c------------------------------------------|
g--2-1--------5-4-------2-1----------------|
D------000000----000000-----000000---------|


(3:15-3:24)
d----------------------------|
a----------------------------|
f-------8--------------------|
c--10---8------10-6-9--------|(rhythm before lead)
g--10---6------10-6-9--------|
D--8----6--4-6-8--4-7--------|

(3:15-3:24)
d-----------------------------|
a---3-3-3h4-4p3---6p4-4p3-3---|
f--5------------5-----------5-|(lead part)
c-----------------------------|
g-----------------------------|
D-----------------------------|

SOLO
(3:25-3:56)
d-------------------------------------------------------------|
a-------------------------------------------------------------|
f----12-----12--12---12----12-12----12----12--12--12----------|x2
c--10--10-10--10----------------------------------------------|
g------------------13-13-13-13----11-11-11-11--10-10-10-11-13-|
D-------------------------------------------------------------|

d---------------------------|
a---------------------------|
f------8--------------------|(this and above is solo
c--10--8--3--5--------------|     rhythm)
g--10--6--3--5--------------|
D--8---6--1--3--------------|


d------------------------------------------|
a------------------------------------------|
f-----12--7-8-10-8-7-7h8p7-----------------|
c--10-------------------------8------------|
g------------------------------------------|
D------------------------------------------|


d----11-10---11----11----11--13fb-11fb-11-10-11-|
a--13fb---13fb--13fb--13fb----------------------|
f--------------------------12-------------------|
c-----------------------------------------------|
g-----------------------------------------------|
D-----------------------------------------------|


d-8----8----8-----10---10---10---11--11-11-11h13p11--11h13p11--11-13-13/15-|
a-11fb-11fb-11fb--13fb-13fb-13fb-14fb-------------13---------13------------|
f--------------------------------------------------------------------------|
c--------------------------------------------------------------------------|
g--------------------------------------------------------------------------|
D--------------------------------------------------------------------------|


(play these sections speed picking,also palm mute)
d--------------------------------|
a--------------------------------|
f--------------------------------|
c--------------------------------|x4
g--15-15-17-18-17-15-17-18-17-15-|
D--------------------------------|

d--------------------------------|
a--------------------------------|
f--------------------------------|
c--------------------------------|
g--17-17-18-20-18-17-18-20-17-20-|x4
D--------------------------------|

d--------------------------------|
a--------------------------------|
f--------------------------------|
c--------------------------------|
g--18-18-20-22-20-18-20-22-20-18-|x4
D--------------------------------|

d--------------------------------|
a--------------------------------|
f--------------------------------|
c--15-15-17-18-17-15-17-18-17-15-|
g--------------------------------|x4
D--------------------------------|

d--------------------------------|
a--------------------------------|
f--------------------------------|
c--17-17-18-20-18-17-18-20-17-20-|
g--------------------------------|x4
D--------------------------------|

d--------------------------------|
a--------------------------------|
f--------------------------------|
c--18-18-20-22-20-18-20-22-20-18-|
g--------------------------------|x4
D--------------------------------|

d-------------------------22fb-22-|
a---------------------------------|
f--17-19-20-19-20-22-20-19--------|
c---------------------------------|
g---------------------------------|x4
D---------------------------------|

d--------------------------------                   ------]
a--------------------------------      on 4th time        ]
f--5-7-8-7h8p7-5-----------------      add this           ]
c-------------8------------------x4                       ]
g--------------------------------   f--7-8-7h8p7-8/10-8-7 ]
D--------------------------------                   ------]

d----------------------------------|
a--13-15-16-15h16p15--13-----------|
f-------------------15-------------|
c----------------------------------|x4
g----------------------------------|
D----------------------------------|

d--20p18p15-----------------------18/20fb[-----on 4th time-------|
a----------20-18-16-18-16-16-18-20-------[ <<     add this-------|        
f------------------------17--------------------------------------|
c----------------------------------------------------------------|
g----------------------------------------------------------------|
D----------------------------------------------------------------|

PRE-CHORUS
(3:57-4:23)
d---------------------------------|
a---------------------------------|
f--9---12---777/9-9---------------|
c--9---12---777/9-9-2-222---------|
g--7---10---555/7-7-2-222---------|
D---00---00---------0-000---------|

                                     x3
d---------------------------------|
a---------------------------------|
f--9---12---777/9-9---------------|
c--9---12---777/9-9---------------|
g--7---10---555/7-7-5-7-5---------|
D---00---00--------------6-3-5-3--|

d-----------------------------------------------|
a-----------------------------------------------|
f--9---12---777/9-9-----------------------------|on 4th time
c--9---12---777/9-9-----------------------------|
g--7---10---555/7-7-5-7-5--------5-7-5----------|
D---00---00--------------6-3-5-3------6-3-5-3-0-|

then
d--333-----------|
a--333-----------|
f--000-----------|
c--222-----------|
g----------------|
D----------------|

*chourus is same as above*

(4:44-4:57)

d---------------------------------------------------------|
a---------------------------------------------------------|
f---------------------------------------------------------|
c--77777-5--------------------------------------------2---|
g--77777-5--5-7-5--------5-7-5---------5-7-5----------2---|
D--55555-3-------6-3-5-3------6-3-5-3-0-----6-3-5-3-0-0---|

LEGEND:
fb=full bend
h=hammer on
p=pull off
/=slide to
*=pitch harmonic

Legal Terms:this is not my song i just tabbed my own interpretation of it.
All rights belong to Shadows Fall and ect.
NO PLAGERISM!

*COMMENT!*
Suggest correction
comments
print report bad tab
2 comments total.
-2 reply
Miniwheat09 10 Nov 24, 2008 01:18 PM

THIS IS THE BEST TAB EVER AND IF YOU DON"T THINK SO YOUR GAY AND YOU LIKE TWIGHLIGHT AND YOU SHOULD BE SHOT IN THE FACE WITH AN ATOMIC MISSLE!!!!!!!!!!!!!!!

0 reply
jagsfan08 10 Jan 28, 2009 04:53 PM

best tab ive seen

guest
You may want to rate the tab now too:
select rating
Wanna post a correction for this tab? Suggest correction