Oops, an error
Loading. Please wait.

Ahora Y Siempre Tab

10 views 1 this week
no commentswrite comment
1 2 3 4 5
3 more votes to show rating
add to favorites
launch autoscroll
font size
0
reset
how to read this tab
guitar tuner
×
Best way to learn
"Ahora Y Siempre"
Autoscroll
slow
fast
+/-
esc
set tempo
stop
======================AHORA Y SIEMPRE==========================
Intro
A - F#m - E - D

e|-----------------------------------------------------------------|
B|-----------------------------------------------------------------|
G|-4p6-4-6-4--------4p6--4-6-4--------9--6p7p6-4p6----------976----|
D|------------7-6-7--------------7-6-7-----------------6-7---------|
A|-----------------------------------------------------------------|
E|-----------------------------------------------------------------|

A - F#m - E - D
A - F#m - D - E
B-B(PM)

Estribo
A - E
A - E
B - F#
B - E
A

Repite Intro

A - F#m - E - D
A - F#m - D - E

No me olvides por favor...

A - G#6 - D - A - G#6
A - G#6 - D

e|----------------------------------------------|
B|---10-10-------10-10------10-10-------10-10---|
G|--9-----9----9------9---9-------9---9-------9-|
D|-7---------6----------0-----------7-----------|
A|----------------------------------------------|
E|----------------------------------------------|

e|---------------------------|
B|---10-10-------10-10----10-|
G|--9-----9----9------9---9--|
D|-7---------6----------0----|
A|---------------------------|
E|---------------------------|

B-B(PM)

Estribo
A - E
A - E
B - F#
B - E
A

Intro + Solo

A - F#m - E - D
A - F#m - D - E

A - G#6 - D - A - G#6
A - G#6 - D

Sé que no puedo....

Estribo

A
Ahora y siempre en libertad...
Suggest correction
Give kudos to tab author, rate the tab!
1 2 3 4 5
comments
print report bad tab
guest
You may want to rate the tab now too:
select rating
Wanna post a correction for this tab? Suggest correction