Oops, an error
Loading. Please wait.

Bajo El Agua Tab

version 1
version 1

Whole song

by Shaila
170 views 1 this week
no commentswrite comment
1 2 3 4 5
3 more votes to show rating
add to favorites
launch autoscroll
font size
0
reset
how to read this tab
guitar tuner
×
Best way to learn
"Bajo El Agua"
Autoscroll
slow
fast
+/-
esc
set tempo
stop
E--5-5-5-4-4-4-2-2-2-5-5-5---2----
B---------------------------------------
G---------------------------------------
D---------------------------------------
A---------------------------------------
E---------------------------------------


E--5-5-5-4-4-4-2-2-2-5-5-5---2----
B---------------------------------------
G---------------------------------------
D---------------------------------------
A---------------------------------------
E---------------------------------------


E--4-2-4-2-4-2-4-2--2--2-5-5-5-2--
B---------------------------------------
G---------------------------------------
D---------------------------------------
A---------------------------------------
E---------------------------------------


E--4-2-4-2-4-2-4-2-2-2-0-0-0-0/---
B---------------------------------------
G---------------------------------------
D---------------------------------------
A---------------------------------------
E---------------------------------------

(Háganlo con el ritmo de la canción)
Suggest correction
Give kudos to tab author, rate the tab!
1 2 3 4 5
comments
print report bad tab
guest
You may want to rate the tab now too:
select rating
Wanna post a correction for this tab? Suggest correction