Oops, an error
Loading. Please wait.

Bajo El Agua Tab

version 2
version 2

Whole song

74 views 1 this week
no commentswrite comment
1 2 3 4 5
3 more votes to show rating
add to favorites
launch autoscroll
font size
0
reset
how to read this tab
guitar tuner
×
Best way to learn
"Bajo El Agua"
Autoscroll
slow
fast
+/-
esc
set tempo
stop
e|-----------------------------
B|--10-10--9-9--7-7--9-9-------
G|--9-9---9-9---9-9--9-9-------(es opcional)
D|-----------------------------                 x2
A|-----------------------------
E|-----------------------------


e|------------------------------------------------------------
B|--9--9--9--9----7-7---10-10-------9--9--9--9----7-7---5-5---
G|----9--9--9--9------9---------------9--9--9--9------7-------
D|------------------------------------------------------------
A|------------------------------------------------------------
E|------------------------------------------------------------

y repite primer intro

espero que este bien ^^

SALUDOS
Suggest correction
Give kudos to tab author, rate the tab!
1 2 3 4 5
comments
print report bad tab
guest
You may want to rate the tab now too:
select rating
Wanna post a correction for this tab? Suggest correction