Oops, an error
Loading. Please wait.

My Own Life Tab

15 views 1 this week
no commentswrite comment
1 2 3 4 5
3 more votes to show rating
add to favorites
launch autoscroll
font size
0
reset
how to read this tab
guitar tuner
×
Best way to learn
"My Own Life"
Autoscroll
slow
fast
+/-
esc
set tempo
stop
Intro:


      FA(x7)      DO(x7)          REm(x7)           LA#
e|--------------------------------------------------------
b|--------------------------------------------------------
g|--------------------------------------------------------
d|----10-----8------5----3---5-----7---------3-----3----
a|----8------8------3----3---3-----5---------0-----1----
e|---------------------------------------------------------


    FA(x7)   DO(x7)  REm(x2) LA#(x6)  DO(x2)          FA(x7)  DO(x5)
e|-----------------------------------------------------------------
b|-----------------------------------------------------------------
g|-----------------------------------------------------------------
d|----10---8---5------7-------3--------5-----3---5------3--------5-
a|----8----8---3------5-------1--------3-----3---3------3--------3-
e|------------------------------------------------------1----------

(los acordes son igual q la intro)

FA
Far away from home
DO                                        REm
from the treasures that belong to my mind
LA#
to my heart
FA
?cause every single minute that i have to grow
DO
i hate my gutz ?cause i hate this world
REm                 DO                    LA#
i tried to enjoy the life i hate and now here i am


REm                                        DO     FA      SOL
so try to understand me when i say that here behind us
DO
there?s a train in this parade that?s passing by


LA#                                  DO
and I?ll try to live my dreams for a long long time
LA#                                  DO
and I?ll draw a picture of this big boy?s sad old soul
LA#                             REm
all this time i?ve been against i

FA                  RE#           REm
being afraid of live the world outside
FA                  RE#         REm
being afraid to living my own life
          FA
in my own life


   FA(x4)  FA(x5)                  FA(x5) FA(x5)           FA(x5)
e|----------1------------------------------1----------------------
b|----------1------------------------------1----------------------
g|----------2------------------------------2----------------------
d|--10------3----10--9--10--12--12--10-----3----10--9--10---10---
a|---8------3-----7--7---7---8---8---8-----3-----7--7---7----8---
e|----------1------------------------------1---------------------


   FA(x5)  DO(x6)  RE(x2)              RE#(x3)  DO(x6)  LA#(x6)
e|-------------------------------------------------------------
b|-------------------------------------------------------------
g|-------------------------------------------------------------
d|---10------5-----7------8--8--10--10---8------5-------3-----
a|---8-------3-----5------5--5---6---6---6------3-------1-----
e|-------------------------------------------------------------
   |--------esta parte se repite dos veces ^-----|


FA
So shall i change the world ?
DO
or be afraid of what they told me?
REm                                     LA#
i know is hard to know but i don?t care anymore

FA
?cause every single minute that i have to grow
DO
i pay the price for my missing soul
REm                         DO                   LA#
i tried to enjoy the life i hate and now here i am


Final: FA - REm - DO - LA/LA#
Suggest correction
Give kudos to tab author, rate the tab!
1 2 3 4 5
comments
print report bad tab
guest
You may want to rate the tab now too:
select rating
Wanna post a correction for this tab? Suggest correction