Oops, an error
Loading. Please wait.

Im Picky tab

version 2
version 2

Whole song

Interactive

Video

634 views 18 this week
no commentswrite comment
1 2 3 4 5
x 13
add to favorites
×
Save as Personal and add changes to this tab that will be seen only by you. Learn more ›
×
You can save this tab as Personal to edit and correct it or add notes. All changes will be seen only by you. Learn more »
launch autoscroll
font size
0
reset
how to read this tab
guitar tuner
edit
Autoscroll
slow
fast
+/-
esc
set tempo
stop
-------------------------------------------------------------------------------
                             I'm Picky - Shaka Ponk
-------------------------------------------------------------------------------
Tabbed by: Paul "Frizouille" Bisset
E-Mail : paul.bisset.1337@gmail.com

*****
Hey ! 
That's my first tab, so if something's wrong or anything, send me an email !
*****


---->Tuning: Drop D (DADGBe)<----


   Verse (Repeat x3)
e|---------------------------------------------------------------------------|
B|---------------------------------------------------------------------------|
G|---------------------------------------------------------------------------|
D|---------------------------------------------------------------------------|
A|---------------------------------------------------------------------------|
D|--6-6-6-6-6-6-6-6-4-4-4-4-4-4-4-4-3-3-3-3-3-3-3-3-2-2-2-2-2-2-2-4----------|


   Pre-Chorus
e|---------------------------------------------------------------------------|
B|---------------------------------------------------------------------------|
G|---------------------------------------------------------------------------|
D|--6---------6---6-4---------4---4-3-----3-3-3-3-3-2-2-2-2-222-222----------|
A|--6---------6---6-4---------4---4-3-----3-3-3-3-3-2-2-2-2-222-222----------|
D|--6-6-6-6-6-6-6-6-4-4-4-4-4-4-4-4-3-3-3-3-3-3-3-3-2-2-2-2-222-222----------|


   Chorus (Repeat x2)
e|---------------------------------------------------------------------------|
B|---------------------------------------------------------------------------|
G|---------------------------------------------------------------------------|
D|--6--6--1-1-1--9--9--4-4-4--6--6--1-1-1--9--9--4--4--4---------------------|
A|--6--6--1-1-1--9--9--4-4-4--6--6--1-1-1--9--9--4--4--4---------------------|
D|--6--6--1-1-1--9--9--4-4-4--6--6--1-1-1--9--9--4--4--4---------------------|

e|---------------------------------------------------------------------------|
B|---------------------------------------------------------------------------|
G|---------------------------------------------------------------------------|
D|--2-2-2-2-2-2-2-2-4-4-4-4-444-444------------------------------------------|
A|--2-2-2-2-2-2-2-2-4-4-4-4-444-444------------------------------------------|
D|--2-2-2-2-2-2-2-2-4-4-4-4-444-444------------------------------------------|


   Pre-Verse (Repeat x4)
e|---------------------------------------------------------------------------|
B|---------------------------------------------------------------------------|
G|---------------------------------------------------------------------------|
D|---------------------------------------------------------------------------|
A|---------------------------------------------------------------------------|
D|--6--6--6--6--6--6--6--6---------------------------------------------------|


Verse

Pre-Chorus

Chorus


   Solo
e|---------------------------------------------------------------------------|
B|--14-16-----14-14-16-17-16---14-14-16-17-16----14-14-16-17-16--------------|
G|---------13----------------------------------13----------------------------|
D|---------------------------------------------------------------------------|
A|---------------------------------------------------------------------------|
D|---------------------------------------------------------------------------|

e|---------------------------------------------------------------------------|
B|--16-14-14-----------------14-14-16-17-16--16-14-14------------------------|
G|-----------16-15-13--13-13--------------------------16-15-13--15--16-------|
D|---------------------------------------------------------------------------|
A|---------------------------------------------------------------------------|
D|---------------------------------------------------------------------------|

e|----------14--16--19--16-----(16)--(16)--(16)--(16)--(16)---(5/10)---------|
B|--14--16-------------------------------------------------------------------|
G|---------------------------------------------------------------------------|
D|---------------------------------------------------------------------------|
A|---------------------------------------------------------------------------|
D|---------------------------------------------------------------------------|


   Solo (Ryhtm) 
e|---------------------------------------------------------------------------|
B|---------------------------------------------------------------------------|
G|---------------------------------------------------------------------------|
D|--6-6-6---4-4-4---10-10-10---1-1-4-4---------------------------------------|
A|--6-6-6---4-4-4---10-10-10---1-1-4-4---------------------------------------|
D|--6-6-6---4-4-4---10-10-10---1-1-4-4---------------------------------------| x3

e|---------------------------------------------------------------------------|
B|---------------------------------------------------------------------------|
G|---------------------------------------------------------------------------|
D|--2--2--2--2--4--4--4--4---------------------------------------------------|
A|--2--2--2--2--4--4--4--4---------------------------------------------------|
D|--2--2--2--2--4--4--4--4---------------------------------------------------|


   Bridge
e|---------------------------------------------------------------------------|
B|---------------------------------------------------------------------------|
G|---------------------------------------------------------------------------|
D|--6-6-6---9-9-9---10-10-10---1-1-4-4---------------------------------------|
A|--6-6-6---9-9-9---10-10-10---1-1-4-4---------------------------------------|
D|--6-6-6---9-9-9---10-10-10---1-1-4-4---------------------------------------|x3

e|---------------------------------------------------------------------------|
B|---------------------------------------------------------------------------|
G|---------------------------------------------------------------------------|
D|--2-2-2-2-2-2-2-2-4-4-4-4-4-4-4-4------------------------------------------|
A|--2-2-2-2-2-2-2-2-4-4-4-4-4-4-4-4------------------------------------------|
D|--2-2-2-2-2-2-2-2-4-4-4-4-4-4-4-4------------------------------------------|


Chorus


**************************

Lyrics :
Hey man, it's not gonna work 
It has nothing to do with you 
I'm sorry, it's me, the thing is : I'm Picky ! 

I'm Picky and all the girls I drive them crazy 
I drive them crazy cos I'm sexy 
They call me sexy cos I'm hot, catch my knot 
Don't you know I am so hot cos I am picky 
And everything is in the lack 
The lack of me into you thing makes you scream my name 
Honey Holy Hole, that's the goal 
To make you wonder why I'm cold and distant 
I'm "cold and distant" yes I am 
I'm Picky cos I'm all alone 
You know that it's crimi, yes it's criminal.. 

(Chorus :)
I'm Picky cos I'm all alone 
Maybe I'm alone cos I'm a picky one 
I got a lotta girls waiting for me not to call 
Another Sunday morning on my own 
Maybe I'm too good for you 
Or maybe you don't know me cos you know nada 
I got a lotta comics to read on the throne 
Good looking you and I could get along 


Oh Porque, porque siempre dices lo mismo 
Lo mismo shiza shy I am, Bim Bam Bam 
I fall down and shame again on me 
Cos you are laughly with your friends 
about my weirdo comportamiento 
I'm Picky yo, freaky no dating 
modelo and woman consistent and too persistant 
I'm cold and distant 
Remember me all the girls I drive'em crazy 
I drive'em crazy cos I'm lazy, I don't give a damn, 
You know I'm fuckin' lazy, I don't give a damn 

(Chorus) 

Hey, Hey, Hey... 
Talk to me, walk with me, Talk to me, Walk with me, Talk to me, Walk with me, Talk to me you're picky ! 

I'm Picky, I drive them all crazy 
I drive them all crazy, 
You know that i'm HOT, HOT, HOT, HOT 

I'm Picky cos I'm all alone 
Oh maybe I'm alone cos I'm a picky one 
I got a lotta girls waiting for me not to call 
Another Sunday morning on my own

**************************


Thank you

            
            
Suggest correction
Creating personal tab
Creating personal tab
You can edit any tab online and save it as your Personal.

You can edit, replace or remove any tab part or add personal notes – all changes will be seen only by you.

Personal tabs can be accessed anytime from any device, even offline.
Learn more »
comments
print report bad tab
guest
You may want to rate the tab now too:
select rating
Wanna post a correction for this tab? Suggest correction