Oops, an error
Loading. Please wait.

Lets Bang chords

version 2
version 2

Whole song

Interactive

151 views 6 this week
no commentswrite comment
1 2 3 4 5
3 more votes to show rating
add to favorites
×
Save as Personal and add changes to this tab that will be seen only by you. Learn more ›
×
You can save this tab as Personal to edit and correct it or add notes. All changes will be seen only by you. Learn more »
launch autoscroll
font size
0
reset
transpose
0
reset
display chords
guitar tuner
edit
Autoscroll
slow
fast
+/-
esc
set tempo
stop
Author
Difficulty
Strumming
There is no strumming pattern for this song yet. and get +5 IQ
All the chords are power chords.

[Verse]
N.C.
Saturday night in a dancing house I say (yeah yeah yeah yeah) 
N.C.
Starving boys staring at my ass I say (yeah yeah yeah yeah)
N.C.
You're the one I like
N.C.
I wanna share my thoughts tonight 
N.C.
Big mama you're my kind 
N.C.
Gimme a part of your precious time 
 
[Pre-Chorus]
G              D     Em
Hey you're the one I like 
G                  D      Em
I wanna share your love tonight 
G                  D       Em
I wanna smoke your special thing 
      G    D    Em
Let's Bang bang bang
      C     D     Em
Let's bang, bang, bang
      C     D     Em
Let's bang, bang, bang
      C        D
Let's bang.....bang!
 
[Chorus]
                     Em
You'd better do your dance 
                       C
You'd better take that chance 
                       G
You'd better move your butt 
                           B
You gotta show me what you got 
                     Em
You wanna check this man 
            C
Jump on the line
                     G
You gotta shake that ass 
                  B
If you wanna have mine
                      C
It's soon the perfect fire
             Em
I'm sounding lighter
                      C
You wanna hang, wanna hang
                B
So do the dance and

Bang bang bang bang bang 
 
[Solo]
   G       D       Em        G       D     Em
e|-------------------------------------------------------------------|
B|-------------------------------------------------------------------|
G|-----------------7-9-9-9---9-9-7-7---------------------------------|
D|-----5-5-7-7-9-9-------------------9-9-7-7-9-7-5-------------------|
A|-7-7---------------------------------------------7---7-7-7---------|
E|-------------------------------------------------------------------|

   G        D    Em                G       D     Em
e|-------------------------------------------------------------------|
B|-------------------------------------------------------------------|
G|-------------------------------------------------------------------|
D|-5---5-5-------------------------9-9-9-9-7-7-7-6---6-6-6---6-6-6---|
A|---------5-5-5-7---7-7-7---7-7-7-----------------------------------|
E|-------------------------------------------------------------------|

   G       D     Em                     G                    B
e|-------------------------------------------------------------------|
B|-------------------------------------------------------------------|
G|-------------------------------------------------------------------|
D|-5---5-5-------------------------------------------8-9-9-8-9-9-8-9-|
A|---------5-5-5-7---7-7-7---7-7-7--5-5-5-5-5-5-5-5------------------|
E|-------------------------------------------------------------------|
               
[Verse]
N.C.
Do the dance mate and I lose cabeza
N.C.
Yeah yeah yeah yeah
N.C.
You get my ass with the troubleshoot styla
N.C.
Yeah yeah yeah yeah
N.C.
I wanna get naughty and no wanna doubt
N.C.
Yeah yeah yeah yeah
N.C.
The boys over the rainbow is just what I want
N.C.
Yeah ! Yeah ! Yeah ! 
 
[Pre-Chorus]
G              D     Em
Hey you're the one I like 
G                  D      Em
I wanna share your love tonight 
G                  D       Em
I wanna smoke your special thing 
      G    D    Em
Let's Bang bang bang
      G     D     Em
Let's bang, bang, bang
      G     D     Em
Let's bang, bang, bang
      G        B
Let's bang.....bang!
 
[Bridge]
Em          D
You better, you better
Em          D
You better, you better
Em          D
You better, you better
Em         G     F#m
You better Dance dance!
Em          D
You better You better
Em          D
You better You better
      C
Let's bang bang bang

Bang bang bang bang
Em          D
You better You better
Em          D
You better You better
      C
Let's bang, let's bang
      D
Let's bang, let's bang
 
[Chorus]
                     Em
You'd better do your dance 
                       C
You'd better take that chance 
                       G
You'd better move your butt 
                           B
You gotta show me what you got 
                     Em
You wanna check this man 
            C
Jump on the line
                     G
You gotta shake that ass 
                  B
If you wanna have mine
                      C
It's soon the perfect fire
             Em
I'm sounding lighter
                      C
You wanna hang, wanna hang
                B
So do the dance and

Bang bang bang bang bang  
 
[Outro]
      C                                             Em
Hey yo chic-chica you wanna hang out with the chimp?

So bring your ass to table! 
                 C
Wanna hang wanna hang

So do the dance and
B
Bang bang bang bang bang ! 
Em
I kill yo, I kill yo, I kill yo yo yo, I kill yo
Suggest correction
Creating personal tab
Creating personal tab
You can edit any tab online and save it as your Personal.

You can edit, replace or remove any tab part or add personal notes – all changes will be seen only by you.

Personal tabs can be accessed anytime from any device, even offline.
Learn more »
Give kudos to tab author, rate the tab!
1 2 3 4 5
comments
print report bad tab
guest
You may want to rate the tab now too:
select rating
Wanna post a correction for this tab? Suggest correction