Oops, an error
Loading. Please wait.

Run Run Run Tab

version 1
version 1

Whole song

Interactive

2,483 views 3 this week
no commentswrite comment
1 2 3 4 5
worth learning
x 1
add to favorites
launch autoscroll
font size
0
reset
how to read this tab
guitar tuner
Tab Pro tools
  • play this tab
  • loop segment
  • change instrument
  • show fretboard
  • metronome
Autoscroll
slow
fast
+/-
esc
set tempo
stop
Contributor
Difficulty
intermediate
You can see my cover here : https://www.youtube.com/watch?v=C5JeHVPvUPw

Guitar standard tunning

the intro :

---------------------------------------------------|
10x-10x-10x-10x-10--10-10-8--8-8-------------------|
--x---x---x---x------------------9--9-9-7-5-7x7x7x-|
7-x-7-x-7-x-7-x------------------------------------|
---------------------------------------------------|
---------------------------------------------------|


-----------------------------|
10--10-10-8--8-8-------------|
-----------------9--9-9-7-5--|
-----------------------------|
-----------------------------|
-----------------------------|

Couplet :

---------------------------------------------------|
---------------------------------------------------|
---------------------------------------------------|
---------------2--------------------2--------------|
0--0-0-0-(1)\3----3--0--0-0-0-(1)\3----3-----------|
---------------------------------------------------|


---------------------------------------------------|
---------------------------------------------------|
---------------2--------------------2-2-2----------|
0--0-0-0-(1)\3----3--0--0-0-0-(1)\3----------------|
---------------------------------------------------|
---------------------------------------------------|


---------------------------------------------------|
---------------------------------------------------|
---------------------------------------------------|
-------2-5--2-----------2--------------2-----------|
3--3-3---------0--0-0-3----3--0--0-0-3----3--------|
---------------------------------------------------|



-----------------------------|
-----------------------------|
-----------------------------|
7--7-7-5--5-5-2--2-2---------|
---------------------5--5-5--|
-----------------------------|


---------------------------------------------------|
---------------------------------------------------|
---------------------------------------------------|
-------2-5--2-----------2--------------2-----------|
3--3-3---------0--0-0-3----3--0--0-0-3----3--------|
---------------------------------------------------|


-----------------------------|
-----------------------------|
-----------------------------|
-----------------------------|
0--0-0-3-0--0-0-3-0----------|
-----------------------------|

For the solo i can't explain but here is a tuto :

https://www.youtube.com/watch?v=Ya0jVAQXeTU

After the solo :

(this part use palm muting)

-------------------------------------------------------------------------|
-------------------------------------------------------------------------|
-------------------------------------------------------------------------|
-------------------------------------------------------------------------|
-7-7-7-7-7-7-7-7-7-7-7-7-7-7-7-7-----------------------------------------|
---------------------------------10-10-10-10-10-10-10-10-8-8-8-8-8-8-8-8-|


------------------------------------------------------------|
------------15-15-18-15-------------15x15x15-18-18----18----|
17-17-17-17-14-14-17-14-17-17-17-17-14x14x14-17----17----17-| (let ring)
17-17-17-17-------------17-17-17-17-------------------------|
------------------------------------------------------------|
------------------------------------------------------------|


------------------------------------------------|
------------------------------------------------|
5--5--5--5--7--7--7--7--9--9--9--9--------------|
5--5--5--5--7--7--7--7--9--9--9--9--------------|
3--3--3--3--5--5--5--5--7--7--7--7--------------|
------------------------------------------------|


-------------------------------------|
17-17-17-18-18-18-12-12-12-13/-------|
x--x--x--x--x--x--x--x--x--x---------|
14-14-14-15-15-15-9--9--9--10/-------|
-------------------------------------|
-------------------------------------|

the bend : (only the 15 fret and the bend is full)

12-12-12|
15}15}15|
--------|
--------|
--------|
--------|

Intro and ending :

-------|
-------|
2------|(let ring)
2------|
0------|
-------|

by magma911tabs
comments
We did not receive enough feedback on this tab! Please rate:
print report bad tab
1 2 3 4 5
I want to post or [tab]
guest
You may want to rate the tab now too:
select rating
Please do not post tabs as comments. Select "correction" instead!