Oops, an error
Loading. Please wait.

Go An Let Me Go tab

7 views 3 this week
no commentswrite comment
1 2 3 4 5
3 more votes to show rating
add to favorites
×
Save as Personal and add changes to this tab that will be seen only by you. Learn more ›
×
You can save this tab as Personal to edit and correct it or add notes. All changes will be seen only by you. Learn more »
launch autoscroll
font size
0
reset
how to read this tab
guitar tuner
edit
Autoscroll
slow
fast
+/-
esc
set tempo
stop
About this tab version
First attempt at tabbing a Shakkalabbits song, so suggestions appreciated. Was this info helpful? Yes No
[Intro]
e|--0--|----------------------------------|-------------------------------------|
B|--x--|------8-10-8-11-8-10-8------------|----8-10-8-11-8-10--/16--16--16--16--|
G|--3--|--7/9------------------8p7p5---5--|--9-----------------/15--15--15--15--|
D|--2--|-----------------------------8----|--------------------/13--13--13--13--|
A|--3--|----------------------------------|-------------------------------------|
E|-----|----------------------------------|-------------------------------------|

e|----------------------------|----------------------------|
B|--16--15--16--15--16-15-13--|----------------------------|
G|--15--14--15--14--15-14-12--|--5--5-2-2-5-2--------------|
D|--13--12--13--12--13-12-11--|--7--7---------5-2-5-2------|
A|----------------------------|-----------------------5-3--|
E|----------------------------|----------------------------|

e|---------------------------------------------|----------------------------10---12--|
B|------8-10-8-11-8-10-8-----8-10-8-11-8-10-8--|------8-10-8-11-8-12-8-13-8----8-----|
G|--7/9------------------7/9-------------------|--7/9--------------------------------|
D|---------------------------------------------|-------------------------------------|
A|---------------------------------------------|-------------------------------------|
E|---------------------------------------------|-------------------------------------|

e|----------------------------------|------------------------------------|
B|----------------------------------|-9-12--------------------14b16------|
G|----------------------------------|-9/12-12-9-9-12-14p12-14-14b16r-12--|
D|----------------------------------|------------------------------------|
A|--5/8-8-12-8-10-8-12-8-12p10p8-8--|------------------------------------|
E|----------------------------------|------------------------------------|

[Verse 1]
e|--0--|-----------|------|--------------------|----------|------------|
B|--x--|-----------|--15--|--------------------|----------|------------|
G|--3--|-----------|--15--|--7b9r7-5---5--5~\--|--xx------|------------|
D|--2--|-----------|--14--|----------7---------|--xx------|------------|
A|--3--|-----------|--15--|--------------------|--xx------|------------|
E|-----|--1--1/13--|------|--------------------|--xx-13\--|--5/10/15\--|

e|-------------------|-------------------|
B|-------------------|-------------------|
G|-------------------|-------------------|
D|------5-5-3-3-2----|--5-5-5-5-5--------|
A|----------------5--|--3-3-3-3-3--------|
E|--3-3--------------|------------3/15\--|

[Chorus]
e|--0-----1----0--|--1--1--1-1--3--3-3--3--3--|--0-----0---0--0--1----1--0----|--1--1--1-1--3--3-3--3--3--|
B|--x-----x----x--|--1--1--1-1--3--3-3--3--3--|--x--x--x-x-x--x--x-x--x--x-x--|--1--1--1-1--3--3-3--3--3--|
G|--3---3-3--3-3--|--2--2--2-2--4--4-4--4--4--|--3--3--3-3-3--3--3-3--3--3-3--|--2--2--2-2--4--4-4--4--4--|
D|--2---2-2--2-2--|--3--3--3-3--5--5-5--5--5--|--2--2--2-2-2--2--2-2--2--2-2--|--3--3--3-3--5--5-5--5--5--|
A|--3---3-3--3-3--|--3--3--3-3--5--5-5--5--5--|--3--3--3-3-3--3--3-3--3--3-3--|--3--3--3-3--5--5-5--5--5--|
E|----------------|--1--1--1-1--3--3-3--3--3--|-------------------------------|--1--1--1-1--3--3-3--3--3--|

e|--0-----1----0--|--1--1--1-1--3--3-3--3--3--|--0-----0---0--0--1----1--0----|----------|----------|
B|--x-----x----x--|--1--1--1-1--3--3-3--3--3--|--x--x--x-x-x--x--x-x--x--x-x--|----------|----------|
G|--3---3-3--3-3--|--2--2--2-2--4--4-4--4--4--|--3--3--3-3-3--3--3-3--3--3-3--|--8--10---|--8--10---|
D|--2---2-2--2-2--|--3--3--3-3--5--5-5--5--5--|--2--2--2-2-2--2--2-2--2--2-2--|--8--10---|--8--10---|
A|--3---3-3--3-3--|--3--3--3-3--5--5-5--5--5--|--3--3--3-3-3--3--3-3--3--3-3--|--6---8---|--6---8---|
E|----------------|--1--1--1-1--3--3-3--3--3--|-------------------------------|--6---8---|--6---8---|

[Pre-verse 2]
e|----------------------------------|-----------------------------------|-----------------------------------|
B|----------------1--1--------------|-----------------------------------|----------------1-1-1--------------|
G|------------0-2------2-2-0-0-2-2--|--------------------------3-3------|--------------2-------2-2-0-0-2-2--|
D|------0-1-2-----------------------|----------------5-5-5-2-2-----2-2--|------0-1-2-1----------------------|
A|--3-3-----------------------------|-----------------------------------|--3-3------------------------------|
E|----------------------------------|--1-1-3-4-5-4-3--------------------|-----------------------------------|

e|----------------|
B|------6--6--8\--|
G|--3b4-5--5--7\--|
D|----------------|
A|----------------|
E|----------------|

[Verse 2]
e|--------------0-------|--1--|--------------0--|------------------|
B|-----1-----------1----|--1--|-----1-----------|--6/8--7--6 6-5\--|
G|--------0h3-3------3--|--2--|--------0h3-3----|--7/9--8--7-6-5\--|
D|----------------------|-----|-----------------|------------------|
A|--3-------------------|-----|--3--------------|------------------|
E|----------------------|-----|-----------------|------------------|

e|-----------------0------|--1-----------|-------------------|-----------------------------|
B|-------------------1----|--1-----------|-------------------|-----------------------------|
G|-----3--(0-h3)-3-----3--|--2-----------|-------------------|-----------------------------|
D|------------------------|--------------|------5-5-3-3-2----|--(5)-(5)-(5)-(5)-(5)--------|
A|--3---------------------|--------------|----------------5--|---3--(3)-(3)--3--(3)--------|
E|------------------------|-----1/--13\--|--3-3--------------|----------------------3/15\--|

[Chorus]
e|--0-----1----0--|--1--1--1-1--3--3-3--3--3--|--0-----0---0--0--1----1--0----|--1--1--1-1--3--3-3--3--3--|
B|--x-----x----x--|--1--1--1-1--3--3-3--3--3--|--x--x--x-x-x--x--x-x--x--x-x--|--1--1--1-1--3--3-3--3--3--|
G|--3---3-3--3-3--|--2--2--2-2--4--4-4--4--4--|--3--3--3-3-3--3--3-3--3--3-3--|--2--2--2-2--4--4-4--4--4--|
D|--2---2-2--2-2--|--3--3--3-3--5--5-5--5--5--|--2--2--2-2-2--2--2-2--2--2-2--|--3--3--3-3--5--5-5--5--5--|
A|--3---3-3--3-3--|--3--3--3-3--5--5-5--5--5--|--3--3--3-3-3--3--3-3--3--3-3--|--3--3--3-3--5--5-5--5--5--|
E|----------------|--1--1--1-1--3--3-3--3--3--|-------------------------------|--1--1--1-1--3--3-3--3--3--|

e|--0-----1----0--|--1--1--1-1--3--3-3--3--3--|--0-----0---0--0--1----1--0----|----------|----------|
B|--x-----x----x--|--1--1--1-1--3--3-3--3--3--|--x--x--x-x-x--x--x-x--x--x-x--|----------|----------|
G|--3---3-3--3-3--|--2--2--2-2--4--4-4--4--4--|--3--3--3-3-3--3--3-3--3--3-3--|--8--10---|--8--10---|
D|--2---2-2--2-2--|--3--3--3-3--5--5-5--5--5--|--2--2--2-2-2--2--2-2--2--2-2--|--8--10---|--8--10---|
A|--3---3-3--3-3--|--3--3--3-3--5--5-5--5--5--|--3--3--3-3-3--3--3-3--3--3-3--|--6---8---|--6---8---|
E|----------------|--1--1--1-1--3--3-3--3--3--|-------------------------------|--6---8---|--6---8---|

[Solo]
e|---------------------------------------|------------------2-3-2-3-8-7--|
B|---------------------------------------|--------------4-3--------------|
G|---------------------------------------|--------3-2-3------------------|
D|------0-1-2-1-0-------0-1-2-1-0--------|--0-1-3------------------------|
A|--3-3-----------0-3-3-----------0-3-3--|-------------------------------|
E|---------------------------------------|-------------------------------|

e|--8p7p5\3-5-3-----------------------------------------------------|
B|--------------6-5h6p5---5-----------------------------------------|
G|----------------------7---7-7-5-----5-7-5---5---------------------|
D|--------------------------------7-7-------7---7p5-7p5---5---------|
A|------------------------------------------------------7---7-5-----|
E|--------------------------------------------------------------8\--|

e|-------------------------------|--/8-8-8-8-10-10-10-10-11-11-11-11-12-12-12-12\--|
B|------------------------1---1--|--/8-8-8-8-10-10-10-10-11-11-11-11-12-12-12-12\--|
G|------------------0-1-2---2----|--/9-9-9-9-10-10-10-10-11-11-11-11-12-12-12-12\--|
D|------0-0-2-2-3-3--------------|-------------------------------------------------|
A|--1/3--------------------------|-------------------------------------------------|
E|-------------------------------|-------------------------------------------------|

e|--13-------13-13----13-------13-13-----|--17b19--17-15-14b15--------15\--|
B|--13-------13-13----13-------13-13-----|----------------------17-15------|
G|--15b17r15-15b17b17-15b17r15-15b17b17--|---------------------------------|
D|---------------------------------------|---------------------------------|
A|---------------------------------------|---------------------------------|
E|---------------------------------------|---------------------------------|

e|-------------------------------------------|---8---8---8--8--8--8--8-10-10-12\--|
B|--10--10--10-10-10-11--11-11-10--10-10-10--|---8---8---8--8--8--8--8-10-10-12\--|
G|--10--10--10-10-10-10--10-10-10--10-10-10--|---9---9---9--9--9--9--9-10-10-12\--|
D|--10--10--10-10-10-10--10-10-10--10-10-10--|--10--10--10-10-10-10---------------|
A|---8---8---8--8--8--8---8--8--8---8--8--8--|--10--10--10-10-10-10---------------|
E|-------------------------------------------|---8---8---8--8--8--8---------------|

                                                  trem. trem.  trem.  trem.
e|-------------------------------------------|--8-----10-----11-----12-----|
B|--12--12--12-12-12-13--13-13-12--12-12-12--|--8-----10-----11-----12-----|
G|--12--12--12-12-12-12--12-12-12--12-12-12--|--9-----10-----11-----12-----|
D|--12--12--12-12-12-12--12-12-12--12-12-12--|-----------------------------|
A|--10--10--10-10-10-10--10-10-10--10-10-10--|-----------------------------|
E|-------------------------------------------|-----------------------------|

e|-------------------------------------------|---8---8---8--8--8--8---8---8--8--8---|
B|--10--10--10-10-10-11--11-11-10--10-10-10--|---8---8---8--8--8--8---8---8--8--8---|
G|--10--10--10-10-10-10--10-10-10--10-10-10--|---9---9---9--9--9--9---9---9--9--9---|
D|--10--10--10-10-10-10--10-10-10--10-10-10--|--10--10--10-10-10-10--10--10-10-10---|
A|---8---8---8--8--8--8---8--8--8---8--8--8--|--10--10--10-10-10-10--10--10-10-10---|
E|-------------------------------------------|---8---8---8--8--8--8---8---8--8--8---|

e|-----------------|------15------13-----12-----10\--|
B|--12\-x--x-x-12--|--12------10------8------6-------|
G|--12\-x--x-x-12--|---------------------------------|
D|--12\-x--x-x-12--|---------------------------------|
A|--10\-x--x-x-10--|---------------------------------|
E|-----------------|---------------------------------|

e|----------|----------------------|-----------------|--------------------------|
B|----------|--13------------------|-----------------|--------------------------|
G|----------|--12b14r12---9-10-12--|-----------------|--------------------------|
D|--10-10\--|----------------------|-----------------|--10-7-10-7-14--14-12-10--|
A|--10-10\--|----------------------|-----------------|--------------------------|
E|---8--8\--|----------------------|------8-8/--15\--|--------------------------|

e|--------------------|------------------|-----------------|------------------------------|
B|--------------------|------------------|-----------------|------------------------------|
G|---9--9-------------|------------------|-----------------|--4-4--4--4--4--4-------------|
D|---8--8-------------|----------3--2----|-----------------|--5-5--5--5--5--5-------------|
A|--10-10-------------|---------------3--|-----------------|--5-5--5--5--5--5----0-0-2-2--|
E|----------8-8/-15\--|--1/8-5-3---------|------8-8/--15\--|--3-3--3--3--3--3--3----------|

e|-----------------------------------|--1--1--1-1--3--3-3--3--3--|--------------------------|
B|----------------1-1----------------|--1--1--1-1--3--3-3--3--3--|--1-1---------------------|
G|--------------2-----0-2-2-0-0-2-2--|--2--2--2-2--4--4-4--4--4--|------2-2-0-0-2-----------|
D|------0-1-2-1----------------------|--3--3--3-3--5--5-5--5--5--|---------------------(2)--|
A|--3-3------------------------------|--3--3--3-3--5--5-5--5--5--|----------------6\1-1-3---|
E|-----------------------------------|--1--1--1-1--3--3-3--3--3--|--------------------------|

e|--1--1--1-1--3--3-3--3--3--|----------------------------------|--1--1--1-1--3--3-3--3--3--|
B|--1--1--1-1--3--3-3--3--3--|----------------1-----------------|--1--1--1-1--3--3-3--3--3--|
G|--2--2--2-2--4--4-4--4--4--|--------------2----0-2-2-0-0-2-2--|--2--2--2-2--4--4-4--4--4--|
D|--3--3--3-3--5--5-5--5--5--|------0-1-2-1---------------------|--3--3--3-3--5--5-5--5--5--|
A|--3--3--3-3--5--5-5--5--5--|--3-3-----------------------------|--3--3--3-3--5--5-5--5--5--|
E|--1--1--1-1--3--3-3--3--3--|----------------------------------|--1--1--1-1--3--3-3--3--3--|

                                                               trem.
e|--------------------------|----------|----------|----------------|---------------------------|
B|--1-1---------------------|----------|----------|----------10----|------------------1--------|
G|------2-2-0-0-2-----------|--8--10---|--8--10---|--8--10---10----|------------0-2-----2-0----|
D|---------------------(2)--|--8--10---|--8--10---|--8--10---10----|------0-1-2----------------|
A|----------------6\1-1-3---|--6---8---|--6---8---|--6---8---8-----|--3-3-------------------3--|
E|--------------------------|--6---8---|--6---8---|--6---8---8-----|---------------------------|



************************************

| x    Dead note
| /    Slide up
| p    Pull-off
| b    Bend
| r    Release
| \    Slide down
| h    Hammer-on
| (n)  Ghost note
|      
| (    
| )    
| ~\   

************************************

            
            
Suggest correction
Creating personal tab
Creating personal tab
You can edit any tab online and save it as your Personal.

You can edit, replace or remove any tab part or add personal notes – all changes will be seen only by you.

Personal tabs can be accessed anytime from any device, even offline.
Learn more »
Give kudos to tab author, rate the tab!
1 2 3 4 5
comments
print report bad tab
guest
You may want to rate the tab now too:
select rating
Wanna post a correction for this tab? Suggest correction