Oops, an error
Loading. Please wait.

England Skies tab

version 2
version 2

Whole song

1,426 views 3 this week
2 commentsread comments
1 2 3 4 5
x 10
add to favorites
×
Save as Personal and add changes to this tab that will be seen only by you. Learn more ›
×
You can save this tab as Personal to edit and correct it or add notes. All changes will be seen only by you. Learn more »
launch autoscroll
font size
0
reset
how to read this tab
guitar tuner
edit
Autoscroll
slow
fast
+/-
esc
set tempo
stop
--------------------------------------------------
             ENGLAND SKIES - Shake Shake Go
--------------------------------------------------
Tabbed by: Dalimil

CAPO 3

INTRO:

       G                    G
e|-----------------------------------------------|
B|--------------0--------------------0-----------|
G|----------0-------0------------0-------0-------|
D|--------0---0---0---0--------0---0---0---0-----|
A|-----------------------------------------------|
E|-----3--------------------3--------------------|

VERSE (4x):

       G                   Asus4
e|-----------------------------------------------|
B|--------------0-------------------3------------|
G|----------0-------0-----------2-------2--------|
D|--------0---0---0---0-------2---2---2---2------|
A|-------------------------0---------------------|
E|-----3-----------------------------------------|

     Em                  C                         
e|-----------------------------------------------|
B|------------0-------------------1--------------|
G|--------0-------0-----------0-------0----------|
D|------2---2---2---2-------2---2---2---2--------|
A|-----------------------3-----------------------|
E|---0-------------------------------------------|


PRE-CHORUS (2x):

      Asus4                  Asus4
e|-----------------------------------------------|
B|-------------3-------------------3-------------|
G|---------2-------2-----------2-------2---------|
D|-------2---2---2---2-------2---2---2---2-------|
A|----0-------------------0----------------------|
E|-----------------------------------------------|

      Asus4                  Asus4         G
e|-----------------------------------------------|
B|-------------3-------------3-----------0-------|
G|---------2-------2--------2-----------0--------|
D|-------2---2---2---2-----2-----------0---------|
A|----0-------------------0----------------------|
E|-----------------------------------0-----------|

     D                    D                         
e|------------2---------------------2------------|
B|--------3-------3------------3--------3--------|
G|------2---2---2---2--------2---2----2---2------|
D|---0--------------------0----------------------|
A|-----------------------------------------------|
E|-----------------------------------------------|

TRANSITION INTO CHORUS:

     D7                        D7                        
e|------------2------------------(2)-------------|
B|--------1-------1-------------(1)--------------|
G|------2---2---2---2----------(2)---------------|
D|---0-------------------------0-----------------|
A|-----------------------------------------------|
E|-----------------------------------------------|

CHORUS:

       G                  Asus4
e|-----------------------------------------------|
B|-------------0-------------------3-------------|
G|---------0-------0-----------2-------2---------|
D|-------0---0---0---0-------2---2---2---2-------|
A|------------------------0----------------------|
E|----3------------------------------------------|

     Em                   C                         
e|-----------------------------------------------|
B|------------0--------------------1-------------|
G|--------0-------0------------0-------0---------|
D|------2---2---2---2--------2---2---2---2-------|
A|------------------------3----------------------|
E|---0-------------------------------------------|

      G                   Asus
e|-----------------------------------------------|
B|-------------0-------------------3-------------|
G|---------0-------0-----------2-------2---------|
D|-------0---0---0---0-------2---2---2---2-------|
A|------------------------0----------------------|
E|----3------------------------------------------|

     Em                   Em       D                  
e|------------------------------------3----------|
B|------------0---------------0------2-----------|
G|--------0-------0----------0------3------------|
D|------2---2---2---2-------2------0-------------|
A|-----------------------------------------------|
E|---0--------------------0----------------------|

Now the same thing again - it is basically the same
picking pattern through the whole song...

VERSE (4x): G Asus4 Em C
PRE-CHORUS (2x): Asus4 Asus4 Asus4 (Asus4 G) D D
TRANSITION INTO CHORUS: D7 D7
CHORUS: 
G Asus4 Em C 
G Asus4 Em (Em D)


            
            
Suggest correction
Creating personal tab
Creating personal tab
You can edit any tab online and save it as your Personal.

You can edit, replace or remove any tab part or add personal notes – all changes will be seen only by you.

Personal tabs can be accessed anytime from any device, even offline.
Learn more »
comments
print report bad tab
2 comments total.
+3 reply
han246 138 Dec 13, 2016 06:40 PM

Good!! But I believe the Asus4 should be a Am.

guest
You may want to rate the tab now too:
select rating
Wanna post a correction for this tab? Suggest correction