Oops, an error
Loading. Please wait.

Family And Genus Acoustic tab

version 1
version 1

Whole song

  • This has everything but the ending improvisation. ... Show more
4,762 views 42 this week
4 commentsread comments
1 2 3 4 5
x 9
add to favorites
×
Save as Personal and add changes to this tab that will be seen only by you. Learn more ›
×
You can save this tab as Personal to edit and correct it or add notes. All changes will be seen only by you. Learn more »
launch autoscroll
font size
0
reset
how to read this tab
guitar tuner
edit
Autoscroll
slow
fast
+/-
esc
set tempo
stop
Here are some of the riffs to give you an idea of how the song goes.

Tabbed from this video: https://www.youtube.com/watch?v=INTh4TbExmw


[Intro]

   G                                     Em7
e|-----------3---------------3---------------3---------------3-------|
B|---------------0---------------0---------------0--------------0----|
G|---0---0-----------0---0-----------0---0-----------0---0-----------|
D|-------------------------------------------------------------------|
A|-------------------------------------------------------------------|
E|-3---3---3---3---3---3---3---3---0---0---0---0---0---0---0---0-----|

^ Repeat a few items

e|--------------------------------------------|
B|--------------------------------------------|
G|-----------------0---0---0---0---0---0---0--|
D|-----2------4-------------------------------|
A|--3------5----------------------------------|
E|---------------3---3---3---3---3---3---3---3|


[Verse]

e|---------------------------------------------------------------------------|
B|---------------------------------------------------------------------------|
G|-------2---4---2---0-------2b--0-------------------------------------------|
D|---0-------------------2---------------------------------------------------|
A|---------------------------------------------------------------------------|
E|-3---3---3---3---3---0---0---0---0-----------------------------------------|

And repeat! Rhythm should be syncopated until the open Em transition


    Drop what I'm doing and sit beside you
e|--------------------------------------------|
B|--1----------------------3------------------|
G|--0----------------------0------------------|
D|--------------------------------------------|
A|--3----------------------5------------------|
E|--------------------------------------------|


Then the intro part plays over the "waaa hooooo" chorus bit.


If,
If I,
If I ever wander on by
Could,
Could you,
Flag me down and beg me to
Drop what I'm doing and sit beside you

So did,
Did they ditch us and leave us with nothing to say
Where,
Where we,
Where we will wait for friends and family
To pass away or come in handy

Oh,
Oh dear,
A rotten summer, a rotten hope, dear
Where, where we wait for to lose our friends and family
To fame and fire, to dame or dandy
To pass away or come in handy



************************************

| b  Bend

************************************

            
            
Suggest correction
Creating personal tab
Creating personal tab
You can edit any tab online and save it as your Personal.

You can edit, replace or remove any tab part or add personal notes – all changes will be seen only by you.

Personal tabs can be accessed anytime from any device, even offline.
Learn more »
comments
print report bad tab
4 comments total. Showing first comments.
0 reply
bbq420247 78 Jun 26, 2016 11:53 AM

Great tab, I really love this song thanks for tabbing it out so I can learn it now. At the end of the verse I think he changes it up a few times and does something like this when he deoesn't do the bend:

e-----------------
b-----------------
g--------2---0----
d---2-------------
a-----------------
e-0---0----0------

+1 reply
toddsnider 12 Jul 15, 2016 08:21 PM

Im not entirely sure but it sound much more full when you continue to play the bass notes during the bend. It will also help keep rhythm

0 reply
kschoolcraft 10 Jun 02, 2017 02:33 AM

In the video you reference hes is using his thumb to alternate between two bass notes as he plays, and he also doesn't play the open g notes in the intro you tabbed

guest
You may want to rate the tab now too:
select rating
Wanna post a correction for this tab? Suggest correction