Oops, an error
Loading. Please wait.

Family And Genus Acoustic tab

version 2
version 2

Whole song

  • This has everything but the ending improvisation. ... Show more
1,099 views 60 this week
no commentswrite comment
1 2 3 4 5
x 4
add to favorites
×
Save as Personal and add changes to this tab that will be seen only by you. Learn more ›
×
You can save this tab as Personal to edit and correct it or add notes. All changes will be seen only by you. Learn more »
launch autoscroll
font size
0
reset
how to read this tab
guitar tuner
edit
Autoscroll
slow
fast
+/-
esc
set tempo
stop
Author
Difficulty
About this tab version
This has everything but the ending improvisation. Palm muting the lower 3 strings with a strong stomp to keep the beat helps with the feeling. Was this info helpful? Yes No
Standard Tuning, based on this video

https://www.youtube.com/watch?v=INTh4TbExmw

[Intro]
   G                                     Em
e|-----------3---------------3---------------3---------------3-------|
B|---------------0---------------0---------------0--------------0----|
G|---0---0---0---0---0---0---0-------0---0---0---0---0---0---0--0----|
D|-------------------------------------------------------------------|
A|-------------------------------------------------------------------|
E|-3---3---3---3---3---3---3---3---0---0---0---0---0---0---0---0-----|

^ Repeat a few times, alternating the two chords.

[Verse Intro]
e|---------------------------------------------------------------------------|
B|---------------------------------------------------------------------------|
G|-------2-4-2-0-------------2b--0-------------------------------------------| x3
D|---0---0---0---0---2---2---------------------------------------------------|
A|---------------------------------------------------------------------------|
E|-3---3---3---3---0---0---0---0---------------------------------------------|

e|----------------------------------------------------|
B|----1-------3---------------------------------------|
G|------0-------0-------0---0---0---0---0---0---0---0-|
D|--------2-------4-----------------------------------|
A|--3--------5----------------------------------------|
E|-------------------3----3---3---3---3---3---3---3---|
  
[Verse]
       If…
e|---------------------------------------------------------------------------|
B|---------------------------------------------------------------------------|
G|---------------------------2b--0-------------------------------------------|
D|---0---0---0---0---2---2---------------------------------------------------|
A|---------------------------------------------------------------------------|
E|-3---3---3---3---0---0---0---0---------------------------------------------|
         If I…
e|---------------------------------------------------------------------------|
B|---------------------------------------------------------------------------|
G|---------------------------2b--0-------------------------------------------|
D|---0---0---0---0---2---2---------------------------------------------------|
A|---------------------------------------------------------------------------|
E|-3---3---3---3---0---0---0---0---------------------------------------------|

        If I Ever  wander on    by
e|---------------------------------------------------------------------------|
B|---------------------------------------------------------------------------|
G|-------2-4-2-0------------(2)----------------------------------------------| 
D|---0---0---0---0---2---2---2---2-------------------------------------------|
A|---------------------------------------------------------------------------|
E|-3---3---3---3---0---0---0---0---------------------------------------------|

[Verse Variation]
e|---------------------------------------------------------------------------|
B|---------------------------------------------------------------------------|
G|-------2---4---------------2b--0-------------------------------------------|
D|---0---0---0---0---2---2---------------------------------------------------|
A|---------------------------------------------------------------------------|
E|-3---3---3---3---0---0---0---0---------------------------------------------|

[Repeat for Verse 2]

[Switch]
    Drop what I'm doing and sit beside you
e|--------------------------------------------|
B|--1----------------------3------------------|
G|--0----------------------0------------------|
D|--------------------------------------------|
A|--3----------------------5------------------|
E|--------------------------------------------|

[Chorus/Howling]
   G               Em
e|-----------3-----------3--------|
B|---------------0-----------0----|
G|---0---0---0---0---0---0---0---0| x3
D|--------------------------------|
A|--------------------------------|
E|-3---3---3---3---0---0---0---0--|

e|----------------------------------------------------|
B|----1-------3---------------------------------------|
G|------0-------0-------0---0---0---0---0---0---0---0-|
D|--------2-------4-----------------------------------|
A|--3--------5----------------------------------------|
E|-------------------3----3---3---3---3---3---3---3---|

[Verse 3]
       Did…
e|---------------------------------------------------------------------------|
B|---------------------------------------------------------------------------|
G|---------------------------2b--0-------------------------------------------|
D|---0---0---0---0---2---2---------------------------------------------------|
A|---------------------------------------------------------------------------|
E|-3---3---3---3---0---0---0---0---------------------------------------------|
         Did they…
e|---------------------------------------------------------------------------|
B|---------------------------------------------------------------------------|
G|---------------------------2b--0-------------------------------------------|
D|---0---0---0---0---2---2---------------------------------------------------|
A|---------------------------------------------------------------------------|
E|-3---3---3---3---0---0---0---0---------------------------------------------|

 Ditch us and leave us with nothing to say
e|---------------------------------------------------------------------------|
B|---------------------------------------------------------------------------|
G|-------2-4-2-0------------(2)----------------------------------------------| 
D|---0---0---0---0---2---2---2---2-------------------------------------------|
A|---------------------------------------------------------------------------|
E|-3---3---3---3---0---0---0---0---------------------------------------------|

[Verse 3 Variation]
e|---------------------------------------------------------------------------|
B|---------------------------------------------------------------------------|
G|-------2---4---------------2b--0-------------------------------------------|
D|---0---0---0---0---2---2---------------------------------------------------|
A|---------------------------------------------------------------------------|
E|-3---3---3---3---0---0---0---0---------------------------------------------|

[Verse 4]
       Where
e|---------------------------------------------------------------------------|
B|---------------------------------------------------------------------------|
G|-------2---4---2-----------2b--0-------------------------------------------|
D|---0---0---0---0---2---2---------------------------------------------------|
A|---------------------------------------------------------------------------|
E|-3---3---3---3---0---0---0---0---------------------------------------------|
         Where we
e|---------------------------------------------------------------------------|
B|---------------------------------------------------------------------------|
G|-------2---4---------------2b--0-------------------------------------------|
D|---0---0---0---0---2---2---------------------------------------------------|
A|---------------------------------------------------------------------------|
E|-3---3---3---3---0---0---0---0---------------------------------------------|

   Wait around for friends and family
e|---------------------------------------------------------------------------|
B|---------------------------------------------------------------------------|
G|-------2---4---2-----------2b--0-------------------------------------------|
D|---0---0---0---0---2---2---------------------------------------------------|
A|---------------------------------------------------------------------------|
E|-3---3---3---3---0---0---0---0---------------------------------------------|

e|---------------------------------------------------------------------------|
B|---------------------------------------------------------------------------|
G|-------2---4---------------2b--0-------------------------------------------|
D|---0---0---0---0---2---2---------------------------------------------------|
A|---------------------------------------------------------------------------|
E|-3---3---3---3---0---0---0---0---------------------------------------------|

      To pass away    or  come in handy
e|--------------------------------------------|
B|--1----------------------3------------------|
G|--0----------------------0------------------|
D|--------------------------------------------|
A|--3----------------------5------------------|
E|--------------------------------------------|

   G               Em
e|-----------3-----------3--------|
B|---------------0-----------0----|
G|---0---0---0---0---0---0---0---0| 
D|--------------------------------|
A|--------------------------------|
E|-3---3---3---3---0---0---0---0--|

   G               
e|-----------3-----| Strum bar each: Em G Em
B|---------------0-|
G|---0---0---0---0-|
D|-----------------|
A|-----------------|
E|-3---3---3---3---|

e|----------------------------------------------------|
B|----1-------3---------------------------------------|
G|------0-------0-------------------------------------|
D|--------2-------4-----------------------------------|
A|--3--------5----------------------------------------|
E|-------------------3----3---3---3---3---3---3---3---|

[Verse 5] 
(Strummed)
   G       Em
Yeah Oh,
G           Em
  Oh dear,
G                 Em         G        Em
 A rotten summer, a rotten whole year

[Verse 6] 
(Strummed)
G            Em
Yeah  Where, 
G       Em
where we
G                  Em                       G   Em
  We wait to lose our friends and family


To fame and fire, to dame or dandy
e|--------------------------------------------|
B|--1----------------------3------------------|
G|--0----------------------0------------------|
D|--------------------------------------------|
A|--3----------------------5------------------|
E|--------------------------------------------|

   Em                                     Em
e|-------------------------------------------------|
B|----------------------------0-----0--0-----------|
G|---------------------------0-----0---0-----------|
D|--2-----2-----2-----2-----2-----2----2-----------|
A|-------------------------------------2-----------|
E|0-----0-----0-----0-----0-----0------0-----0-----|


To pass away or come in handy

e|--------------------------------------------|
B|--1----------------------3------------------|
G|--0----------------------0------------------|
D|--------------------------------------------|
A|--3----------------------5------------------|
E|--------------------------------------------|

[Outro]
G      Em
(Jam out on these chords and G major)

            
            
Suggest correction
Creating personal tab
Creating personal tab
You can edit any tab online and save it as your Personal.

You can edit, replace or remove any tab part or add personal notes – all changes will be seen only by you.

Personal tabs can be accessed anytime from any device, even offline.
Learn more »
comments
print report bad tab
guest
You may want to rate the tab now too:
select rating
Wanna post a correction for this tab? Suggest correction