Oops, an error
Loading. Please wait.

If Not For You Tab

version 3
version 3

Whole song

  • Tab includes as close to exact tablature and picking patterns.
  • It is more accurate than the other tabs of this song out there.
160 views 15 this week
no commentswrite comment
1 2 3 4 5
3 more votes to show rating
add to favorites
launch autoscroll
font size
0
reset
how to read this tab
guitar tuner
Autoscroll
slow
fast
+/-
esc
set tempo
stop
Help us to improve Ultimate-Guitar.com Take our survey!
×
Author
Difficulty
Tuning
intermediate
D A D F# A D
About this tab version
It is more accurate than the other tabs of this song out there. Was this info helpful? Yes No
If Not For You by Shakey Graves
Correct tuning: C#-G#-C#-F-G#-C#
                6  5  3  3 2  1
[Intro] 
C#|----------------------------4--4--3---------------------------------4p3---4--3------------------|
G#|-----------------------4--5----------------------------4--5------------5------------------------|
F |-0----------------------------------------------------0-----------------------------------------|
C#|--0--------------------------------------------------0------------------------------------------|
G#|---0----------0---0---------------------------------0-------------------------------------------|
C#|----0-------4---5---0-----------------0--4--5--0-- x--------------------------------------------|
                                                                                    
C#|---------------------4--4--3------------------------4p3---4p3---4p3---4p3----3-3-3-3-3-3-3-3-3--|
G#|---------------4--5---------------------------4--5------5-----5-----5-----5--5-5-5-5-5-5-5-5-5--|
F |--------------0------------------------------0-------------------------------------0-0-0-0-0-0--|
C#|-------------0------------------------------0--------------------------------------------0-0-0--|
G#|------------------------------------------------------------------------------------------------|
C#|-0--4--5--0-------------------0--4--5--0--------------------------------------------------------|

[Intro and parts of verse] 
                                                         >
C#|-----------------------------------------------------------------------4-4-5-5-5-5------|
G#|------------------------------------------------------4----------------4-4-5-5-5-5------|
F |-------------------------0-------------4-4-4-4-------------------------4-4-5-5-5-5------|
C#|-------------0---0---0--------0----0-0/4-4-4-4----------4-------4-4-4--4-4-5-5-5-5------|
G#|-0--2--4-----------4-------4h5--4h5--0/4-4-4-4------4-----4h5p4-4-4-4--4-4-5-5-5-5------|
C#|-----------0---0-------0------------------------1/4-------------4-4-4--4-4-5-5-5-5------|

C#|-0--0--0--0-0-0-0--0--0----4-------------------4-4-4-5-5-5-5---0-0-0-0-0-0-0-0-0-0-0-0-0-0-0-0-----------|
G#|-0--2--4--5-0-0-2--4--5------4-----------------4-4-4-5-5-5-5---0-0-2-0-0-4-0-0-5-0-5-0-4-5-4-0-----------|
F |-0--0--0--0-0-0-0--0--0--------4---------------4-4-4-5-5-5-5---0-0-0-0-0-0-0-0-0-0-0-0-0-0-0-0-----------|
C#|-0--0--0--0-0-0-0--0--0--------------------4-4-4-4-4-5-5-5-5---0-0-0-0-0-0-0-0-0-0-0-0-0-0-0-0-----------|
G#|-0--0--0--0-0-0-0--0--0----------4h5p4h5p4-4-4-4-4-4-5-5-5-5---0-0-0-0-0-0-0-0-0-0-0-0-0-0-0-0-----------|
C#|-0--0--0--0-0-0-0--0--0--4-----------------4-4-4-4-4-5-5-5-5---0-0-0-0-0-0-0-0-0-0-0-0-0-0-0-0-----------|

C#|---4-------------------4-4-5-5-5-5----0-0-----------------------4-4-4------------------------------------|
G#|-------4-------4-------4-4-5-5-5-5----0-0-----------------------4-4-4------------------------------------|
F |-----------------4-----4-4-5-5-5-5----0-0-----------------------4-4-4------------------------------------|
C#|-------------------4---4-4-5-5-5-5----0-0-----------------------4-4-4-----4---4---4---4---4---4---4---4--|
G#|-----4---5-4-5-4-----4-4-4-5-5-5-5----0-0--2--4--5--0--2--4--5--4-4-4-----4---4---4---4---4---4---4---4--|
C#|-4---------------------4-4-5-5-5-5----0-0-----------------------4-4-4---4---4---4---4---4---4---4---4----|
                                                              > > > >
C#|--------------------------------------------------------------------------------------------------------|
G#|--------------------------------------------------------------------0---0-0---0-0--0--0-----------------|
F |--------------------------------------------------------------------2h3-3-2h3-3-2--0--0--0-0-0-0-0-0-0--|
C#|---5---5---5---5---5---5---5---5---5---5---5---5---5-5-5---x-x-x-x--0---0-0---0-0--0--0--2-3-2-0-0-0-0--|
G#|---5---5---5---5---5---5---5---5---5---5---5---5---5-5-5---x-x-x-x-----------------------0-0-0-0-0-0-0--|
C#|-5---5---5---5---5---5---5---5---5---5---5---5-----5-5-5---x-x-x-x--------------------------------------|
                       PM-----------------------PM
C#|---------------------------------------------------------------------------------------------|
G#|-------------------------------------------------------0-------------------------------------|
F |---------------------------------------------------------------------------------------------|
C#|-0--0--0-0-0-0-0-0--0-0-3-0-3-0-3-3-3-0-0-3-0-3---------------0-0-3-0-0-3-3-3-0-0------------|
G#|-3--2--0-0-0-0-0-0--0-0-3-0-3-0-3-3-3-0-0-3-0-3--0h2h3---3p0--0-0-3-0-0-3-3-3-0-0------------|
C#|-0--0--3-0-3-0-3-0--0-0-3-0-3-0-3-3-3-0-0-3-0-3---------------0-0-3-0-0-3-3-3-0-0------------|

C#|---------------------------------------------------------------------------------------------|
G#|---------------------------------------------------------------------------------------------|
F |---------------------------------------------------------------------------------------------|
C#|---0-----------------------------------------------------------------------------------------|
G#|-------3-------------------------------------------------------------------------------------|
C#|-0---0---------------------------------------------------------------------------------------|

Still tabbing the rest of the song

************************************
| p  Pull-off
| /  Slide up
| h  Hammer-on
| x  Dead note 
| >  Accented note
************************************
Suggest correction
Give kudos to tab author, rate the tab!
1 2 3 4 5
comments
print report bad tab
guest
You may want to rate the tab now too:
select rating
Wanna post a correction for this tab? Suggest correction