Oops, an error
Loading. Please wait.

Parliament Tab

202 views 18 this week
no commentswrite comment
1 2 3 4 5
3 more votes to show rating
add to favorites
launch autoscroll
font size
0
reset
how to read this tab
guitar tuner
Autoscroll
slow
fast
+/-
esc
set tempo
stop
Help us to improve Ultimate-Guitar.com Take our survey!
×
Author
Difficulty
intermediate
About this tab version
Just the basics of the intro to this awesome song by Shakey Graves, listen carefully and get the right tempo to it. In the future i may do a tab for the whole song but for now play around with this. Here's the link to the music: https://www.youtube.com/watch?v=AzWJOPcyxXA. Was this info helpful? Yes No
[Intro]

e|-------0---0------0---0-----3-0--------------------------------------------|
B|------1---3---1-----3---1---1-1-3-3b-1-------------------------------------|
G|----------------0---------0-----0-0--0-------------------------------------|
D|---------------------------------------------------------------------------|
A|-0-2--3---3---3-----3---3---3-3-3-3----------------------------------------|
E|---------------------------------------------------------------------------|
  PM-PM 

e|---------------------------------------------------------------------------|
B|---1---1---1---1---1---1---1---1---1---------------------------------------|
G|---2---2---2---2---2---2---2---2---2---------------------------------------|
D|---------------------------------------------------------------------------|
A|-0-----------0-----------0------------0------------------------------------|
E|-----0---3-------0---3-------0---3-----------------------------------------|





************************************

| b   Bend
| PM  Palm mute

************************************
Suggest correction
Give kudos to tab author, rate the tab!
1 2 3 4 5
comments
print report bad tab
guest
You may want to rate the tab now too:
select rating
Wanna post a correction for this tab? Suggest correction