Oops, an error
Loading. Please wait.

Merry Christmas Everyone bass

version 1
version 1

Whole song

Interactive

28 views 1 this week
no commentswrite comment
1 2 3 4 5
3 more votes to show rating
add to favorites
×
Save as Personal and add changes to this tab that will be seen only by you. Learn more ›
×
You can save this tab as Personal to edit and correct it or add notes. All changes will be seen only by you. Learn more »
launch autoscroll
font size
0
reset
guitar tuner
edit
Autoscroll
slow
fast
+/-
esc
set tempo
stop
Author
Merry Christmas Everyone
Single released by Shaking Stevens in 1985, reached #1 around Christmas
Time of that year. Tab by bass50611 Great season song. As original

Intro:
G|-------------------------------|
D|-7------6--4---------7-------7-|
A|----------------5--------7-----|
E|-------------------------------|

Verse 1:
G|-------------------------------------------------------------|
D|-VOCALS & KEYBOARDS ONLY----NO BASS UNTIL END OF VERSE---7-7-|
A|-------------------------------------------------------------|
E|-------------------------------------------------------------|

Verse 2:
G|-----------------------------------------------------------------|
D|-7---7----4----------7---7-----7---7-----7---7----4----------7---|
A|---7---7----4---5---5--7---7--5--7---7--5--7---7----4---5---5--7-|
E|------------------5---------------------------------------5------|

G|--------------------|
D|-7-----7---7---7--6-|
A|---7--5--7----------|
E|--------------------|

Bridge:
G|------------------------------------------------------------------|
D|-4-4-4-4-4-4-4-4------------------4-4-4-4---------7-7-7-7-7-7-7-7-|
A|-----------------5-5-5-5-5-5-5-5----------5-5-5-5-----------------|
E|------------------------------------------------------------------|

               (Break)
G|---------------|
D|---------------|
A|-7-7-7-7---7-7-|
E|---------------|

Verse 3:
G|-----------------------------------------------------------------|
D|-7---7----4----------7---7-----7---7-----7---7----4----------7---|
A|---7---7----4---5---5--7---7--5--7---7--5--7---7----4---5---5--7-|
E|------------------5---------------------------------------5------|

G|---------------|
D|-7-----7---7---|
A|---7--5--7---7-|
E|---------------|

Interlude:
G|-----------------------------------------------------------------|
D|-7---7----4----------7---7-----7---7-----7---7----4----------7---|
A|---7---7----4---5---5--7---7--5--7---7--5--7---7----4---5---5--7-|
E|------------------5---------------------------------------5------|

G|--------------------|
D|-7-----7---7---7--6-|
A|---7--5--7----------|
E|--------------------|

Bridge:
G|------------------------------------------------------------------|
D|-4-4-4-4-4-4-4-4------------------4-4-4-4---------7-7-7-7-7-7-7-7-|
A|-----------------5-5-5-5-5-5-5-5----------5-5-5-5-----------------|
E|------------------------------------------------------------------|

              (Break)
G|----------------|
D|----------------|
A|-7-7-7-7----7-7-|
E|----------------|

Verse 4:
G|-----------------------------------------------------------------|
D|-7---7----4----------7---7-----7---7-----7---7----4----------7---|
A|---7---7----4---5---5--7---7--5--7---7--5--7---7----4---5---5--7-|
E|------------------5---------------------------------------5------|

G|-----------------------------------------------------------|
D|-7----4-4-4-4----------7---7----4-4-4-4----------7---7-----|
A|---7----------5-5-5-5----7---7----------5-5-5-5----7---7-5-|
E|-----------------------------------------------------------|

Interlude:                   (Break)
G|--------------------------------|
D|-7-----6--4------7-----7----7-7-|
A|-------------5------7-----------|
E|--------------------------------|

Verse 5: (Key Change)              (Play This Bit x2)
G|--------------------------------------|
D|----------6---------------------------|
A|---9---9----6---7-------9---9---9---9-|
E|-7---7------------7---7---7---7---7---|

Verse 6:                           (Play This Bit x2)
G|--------------------------------------|
D|----------6---------------------------|
A|---9---9----6---7-------9---9---9---9-|
E|-7---7------------7---7---7---7---7---|

Verse 7:              (Play This Bit x2)
G|--------------------------------------|
D|----------6---------------------------|
A|---9---9----6---7-------9---9---9---9-|
E|-7---7------------7---7---7---7---7---|
                                                                   (END)
Outro:                                                        (Bass Chords)
G|---------------------------------------------------------------------|
D|----------6-6-6-6--------------------9----8--6-----9-----9-------9-9-|
A|---9---9----------7-7-7-7----9---9--------------7-----9--------------|
E|-7---7---------------------7---7---------------------------------7-7-|

Snow is falling
All around me
Children playing
Having fun

It's the season
Of Love and understanding
Merry christmas everyone

Time for parties and celebration
People dancing all night long
Time for presents
And exchanging kisses
Time for singing christmas songs

We're gonna have a party tonight
I'm gonna find that girl underneath the misteltoe, 
We'll kissed by candlelight

Room is swaying, records playing
All the old songs, we love to hear
All I wish that everyday was christmas

What a nice way to spend the year

We're gonna have a party tonight
I'm gonna find that girl
Underneath the mistletoe, we'll kiss by candle light

Snow is fallin, all around me
Children playing, having fun
It's the season, love and understanding
Merry christmas everyone
Merry christmas everyone

Oh merry cristmas everyone

Snow is falling, all around me
Children playing, having fun
It's the season, love and understanding
Merry christmas everyone

Snow is falling, all around me
Children playing, having fun
It's the season, love and understanding
Merry christmas everyone

Snow is falling, all around me
Children playing, having fun
It's the season, love and understanding
Merry christmas everyone

            
            
Suggest correction
Creating personal tab
Creating personal tab
You can edit any tab online and save it as your Personal.

You can edit, replace or remove any tab part or add personal notes – all changes will be seen only by you.

Personal tabs can be accessed anytime from any device, even offline.
Learn more »
Give kudos to tab author, rate the tab!
1 2 3 4 5
comments
print report bad tab
guest
You may want to rate the tab now too:
select rating
Wanna post a correction for this tab? Suggest correction