Oops, an error
Loading. Please wait.

Antologia Bass Tab

192 views 1 this week
no commentswrite comment
1 2 3 4 5
3 more votes to show rating
add to favorites
launch autoscroll
font size
0
reset
guitar tuner
Autoscroll
slow
fast
+/-
esc
set tempo
stop
Help us to improve Ultimate-Guitar.com Take our survey!
×
esta cancion es chida
E|----------|---------|-1-1-1-1-|-3-3-3--|
A|--3-3-3-3-|-0-0-0-0-|---------|--------|
D|----------|---------|---------|--------|
G|----------|---------|---------|--------|

E|---------------|
A|---------------|
D|--12-12-15-14--|
G|---------------|

Para amarte
E|----------|---------|-1-1-1-1-|-3-3-3--|
A|--3-3-3-3-|-0-0-0-0-|---------|--------|
D|----------|---------|---------|--------|
G|----------|---------|---------|--------|

sobra tanto
E|----------|---------|-1-1-1-1-|-3-3-3--|
A|--3-3-3-3-|-0-0-0-0-|---------|--------|
D|----------|---------|---------|--------|
G|----------|---------|---------|--------|

E|--------|
A|--12/5--|
D|--------|
G|--------|

Porque todo
E|----|-1-|-3--|-3-|-3--------|
A|--0-|---|--3-|---|-------3--|
D|----|---|----|---|--3h5-3---|
G|----|---|----|---|----------|

Dejo tejido
E|----|-1-|---|-53-|--------|
A|--0-|---|-5-|----|--------|
D|----|---|---|----|-3h55-5-|
G|----|---|---|----|--------|

E|--3-|-3-|-------|
A|----|---|-12/5--|
D|----|---|-------|
G|----|---|-------|

y aprendi
E|--------------|-35-555----5-555-|-1-111-1-111-|-3----------|
A|--3-333-3-333-|-----------------|-------------|-------7/0--|
D|--------------|--------5h7------|-------------|---3h5------|
G|--------------|-----------------|-------------|------------|

E|--------------|-35-555----5-|-1-111-1-111-|-3--------------|
A|--3-333-3-333-|-------------|-------------|-----------7/0--|
D|--------------|--------5h7--|-------------|---3h5-3535-----|
G|--------------|-------------|-------------|----------------|

pero olvidaste
E|----|-1-|-3--|-3-|-3--------|
A|--0-|---|--3-|---|-------3--|
D|----|---|----|---|--3h5-3---|
G|----|---|----|---|----------|

Porque aun nose
E|----|-1-|---|-53-|-------------|
A|--0-|---|-5-|----|-------------|
D|----|---|---|----|-------------|
G|----|---|---|----|-12-12-12/5--|

y descubri
E|--------------|-35-555--5-555-|-1-111-1-111-|-3-333--3-333--|
A|--3-333-3-333-|---------------|-------------|---------------|
D|--------------|---------------|-------------|---------------|
G|--------------|---------------|-------------|---------------|

y fue por ti
E|----------------|-35-555--5-55---|-1-111-1-111-|-3-333-3----------------|
A|-3-333-3-33-----|-------------7--|-------------|------------------------|
D|----------------|--------------77|-------------|------------------------|
G|-----------3h555|----------------|-------------|---------5/12-12-12-12/5|

lo que es amar
E|-------------|-35-----53-|-1-111----------|-13-----------------|
A|-3-333-3-333-|---23-2----|----------------|---5/10-10----------|
D|-------------|-----------|-------1h33-3/0-|----------10h12-12--|
G|-------------|-----------|----------------|--------------------|

E|-------3----|------------------|-1-111-1-111-|-13----------------|
A|--3-333-0-3-|------------------|-------------|---5/10-10---------|x2
D|------------|-5-7-----------10-|-------------|----------10h12-12-|
G|------------|-----4-5-9-10-9---|-------------|-------------------|

atte. miauricio gatolar
Suggest correction
Give kudos to tab author, rate the tab!
1 2 3 4 5
comments
print report bad tab
guest
You may want to rate the tab now too:
select rating
Wanna post a correction for this tab? Suggest correction