Oops, an error
Loading. Please wait.

Cant Remember To Forget You Bass Tab

version 1
version 1

Whole song

Interactive

3,036 views 9 this week
1 commentread comment
1 2 3 4 5
accurate
x 3
add to favorites
launch autoscroll
font size
0
reset
guitar tuner
Autoscroll
slow
fast
+/-
esc
set tempo
stop
Help us to improve Ultimate-Guitar.com Take our survey!
×
Contributor
Difficulty
novice
First time I've ever tried to make a Bass tab, I'm new to Bass so it took me a 
while to figure out, but here it is, hopefully it's alright.

Main Riff:
|------------------------------------------|
|------------------------------------------|
|--------5-77-5-7--542----------55--44-----|
|-77-5-7---------------55-3-5--5---5----7-5|

|-----------------------------|
|-----------------------------|
|--------5-77-5-7-------------|
|-77-5-7-----------5----------|


Chorus:
|---------------------------------------------------------------------------------|
|99999999-77777777------------------------99999999-77777777-----------------------|
|------------------77777777-10101010-9999-------------------77777777--------------|
|--------------------------------------------------------------------10101010-9999|
Chorus Cont.:
|----------------------------------------------------------|
|---------77777777------------------------99999999-77777777|
|------------------77777777-10101010-9999------------------|
|77777777--------------------------------------------------|


Riff Variations:
|----------------------------------|
|----------------------------------|
|--------5-77-5-7--542-----------55|
|-77-5-7---------------55-3-5--5---|

|---------------------------------------|
|---------------------------------------|
|--------5-77-7-542----------55--44-----|
|-77-5-7------------55-3-5--5---5----7-5|



Note: 10101010s are 10s not 1s and 0s.
Suggest correction new What's this?
You can suggest a correction to this tab. Community and Mods will review your correction and vote to approve or reject it.
comments
We did not receive enough feedback on this tab! Please rate:
print report bad tab
1 2 3 4 5
1 comment total.
0 reply
thefishnr1 113 wrote on May 25 2014, 05:07 pm, edited on May 28 2014, 05:49 pm

great tabs, thanks!I play the chorus like this:|--------------------------------------|--------------------------------------||--------------------------------------|--------------------------------------||-22222222-----------------------------|-22222222-------------------5555-3333-||----------55555555-00000000-4444-2222-|----------55555555-33333333-----------|

guest
You may want to rate the tab now too:
select rating
Please do not post tabs as comments. Select "correction" instead!