Oops, an error
Loading. Please wait.

Dia De Enero Bass Tab

version 1
version 1

Whole song

157 views 1 this week
no commentswrite comment
1 2 3 4 5
3 more votes to show rating
add to favorites
launch autoscroll
font size
0
reset
guitar tuner
×
Best way to learn
"Dia De Enero"
Autoscroll
slow
fast
+/-
esc
set tempo
stop
Shakira - Dia de Enero

La introducción es igual al primer verso

Te conocí un día de enero...
G.-----------------------------
D.------8-----------5----------
A.---------5-5---------6-5h6---
E.---6-----------3-------------


Y como vi que eras sincero...
G.-------------------------
D.------8-----------5h6----
A.---------5-5-------------
E.---6-----------3---------

Que torpe distracción...Y que dulce sensación...
G.---------|-------
D.---------|-------
A.----3----|---8---
E.---------|-------

Y ahora que andamos por el mundo...
G.-----------------------------
D.------8-----------5----------
A.---------5-5---------6-5h6---
E.---6-----------3-------------

Ya te encontré varios rasguños....
G.----------------------------
D.------8-------5--5-5--------
A.---------5-5---------3--5---
E.---6------------------------

Pero mi loco amor...Es tu mejor doctor...
G.---------|-------
D.---------|-------
A.----3----|---8---
E.---------|-------

Voy a curarte el alma en duelo...
G.---------------------
D.------8--------------
A.--6-6---6------------
E.-----------6-6--5h6--

Y todo va a pasar...
G.---------------------------
D.------8--------------------
A.--6-6---6--5-5----5-0-6----
E.---------------3-----------

Tú más que nadie mereces ser feliz...
G.---------|-------
D.---------|-------
A.----3----|---8---
E.---------|-------

Coro
Ya vas a ver como van sanando...
G.-----------------------------------
D.--------8--------------------------
A.----------5-5-5--6-5-6-6---8-8-8---
E.---6-6-----------------------------

Ya vas a ver como va...
G.--------------------------------------------------------
D.--------8-----------------------------------------------
A.----------5-5-5--6-5-6-6---8-8-8--5-5-5-------8-8-8-----
E.---6-6-----------------------------------3-3--------6---

Puente
G.-----------------------------------
D.--------8--------------------------
A.----------5-5-5--6-5-6-6---8-8-8---
E.---6-6-----------------------------

G.-------------------------------------------------------------------------
D.-----8-------------------------------------------------------------------
A.-------5-5-5--6-5-6-6---8-8-8--5-5-5-----0-5-7-8---0-5-7-8-8-----8----8--
E.-6-6---------------------------------3-3---------6------------6----6-----


Eso es todo en la canción lo demas se repite.
Un beso para nayeli.
Suggest correction
Give kudos to tab author, rate the tab!
1 2 3 4 5
comments
print report bad tab
guest
You may want to rate the tab now too:
select rating
Wanna post a correction for this tab? Suggest correction