Oops, an error
Loading. Please wait.

Dia De Enero Bass

version 2
version 2

Whole song

by Shakira
80 views 3 this week
no commentswrite comment
1 2 3 4 5
3 more votes to show rating
add to favorites
launch autoscroll
font size
0
reset
guitar tuner
Autoscroll
slow
fast
+/-
esc
set tempo
stop
La introducción es igual al primer verso

Te conocí un día de enero...
E|--6-|---|-----|-3-|---|--------|
A|----|---|-5-5-|---|---|-5h6-6--|
D|----|-8-|-----|---|-5-|--------|x3
G|----|---|-----|---|---|--------|

Y como vi que eras sincero...
E|--6-|---|-----|-3-|------|
A|----|---|-5-5-|---|-1h3--|
D|----|-8-|-----|---|------|
G|----|---|-----|---|------|

Que torpe distracción...Y que dulce sensación...
E|--8-|----|
A|----|-8--|
D|----|----|
G|----|----|

Y ahora que andamos por el mundo...
E|--6-|---|-----|-3-|---|--------|
A|----|---|-5-5-|---|---|-5h6-6--|
D|----|-8-|-----|---|-5-|--------|
G|----|---|-----|---|---|--------|

Ya te encontré varios rasguños....
E|--6-|---|-----|-----|------|
A|----|---|-5-5-|-----|-1-3--|
D|----|-8-|-----|-5-5-|------|
G|----|---|-----|-----|------|

Pero mi loco amor...Es tu mejor doctor...
E|--8-|----|
A|----|-8--|
D|----|----|
G|----|----|

Voy a curarte el alma en duelo...
E|-------|---66-66--|
A|--66-6-|-6--------|x2
D|-------|----------|
G|----8--|----------|

Y todo va a pasar...
E|-------|-----|-3----------|
A|--66-6-|-4h5-|-----3-1h3--|
D|-------|-----|--55--------|
G|----8--|-----|------------|

Tú más que nadie mereces ser feliz...
E|--8-8-|--------|
A|------|-8-888--|
D|------|--------|
G|------|--------|

Coro
Ya vas a ver como van sanando...
E|--6-6-6-|-----|-------|---------------|
A|--------|-5-5-|-5-6-6-|-5-6-5-8-8-8-8-|
D|-----8--|-----|-------|---------------|
G|--------|-----|-------|---------------|

Ya vas a ver como va...
E|--6-6-6-|-6----|---------|-----------|-----------|
A|--------|--5-5-|-8-5-6-6-|-5-6-5-8-8-|-56-5------|
D|-----8--|------|---------|-----------|------4545-|
G|--------|------|---------|-----------|-----------|

La sal
E|--8-|-8------|
A|----|---8-8--|
D|----|--------|
G|----|--------|

Puente
E|--66-6-|-6----|-------------|-----------|
A|-------|--5-5-|-6-5-6-6-8-6-|-8-6-8-88--|
D|----8--|------|-------------|-----------|
G|-------|------|-------------|-----------|

E|--66-6-|-6----|-------------|-----------|---|
A|-------|--5-5-|-8-5-6-6-8-6-|-6-8-8-6-6-|-5-|
D|----8--|------|-------------|-----------|---|
G|-------|------|-------------|-----------|---|

-------|-3---|---------|--------|
-5-----|---3-|---------|-3---3--|
---4-5-|-----|-0-2-3-3-|---3----|
-------|-----|---------|--------|

Y aunque hayas
E|--6-6-6-|-6----|---3-3-|-3----------|
A|--------|--5-5-|-5-----|---5-6-6-6--|
D|-----8--|------|-------|------------|
G|--------|------|-------|------------|

E|--6-6-6-|-6----|---3-3-|-3------|
A|--------|--5-5-|-5-----|---1-3--|
D|-----8--|------|-------|--------|
G|--------|------|-------|--------|

E|--8-|----|
A|----|-8--|
D|----|----|
G|----|----|

y aunque parezcas
E|-------|---66-66--|
A|--66-6-|-6--------|x2
D|-------|----------|
G|----8--|----------|

conozco la razon
E|-------|-----|--------|----------|
A|--66-6-|-4h5-|--4-----|----------|
D|-------|-----|-4--4h5-|---5------|
G|----8--|-----|--------|-7---7-5--|

por eso quise
E|--8-|----------|
A|----|-8-/13/8--|
D|----|----------|
G|----|----------|

Termina en coro

atte miauricio gatolar
Suggest correction
Give kudos to tab author, rate the tab!
1 2 3 4 5
comments
print report bad tab
guest
Wanna post a correction for this tab? Suggest correction