Oops, an error
Loading. Please wait.

Dia De Enero Tab

version 2
version 2

Whole song

84 views 6 this week
no commentswrite comment
1 2 3 4 5
3 more votes to show rating
add to favorites
launch autoscroll
font size
0
reset
how to read this tab
guitar tuner
Autoscroll
slow
fast
+/-
esc
set tempo
stop
Help us to improve Ultimate-Guitar.com Take our survey!
×
Intro. (BAJEO)

G.-------------------------------------
D.-------------------------------------
A.---------5--5--5--------6-6-6h8-----  se repite x 2 veces
E.---6---------------3--------------6--


VERSOS. (BAJEO)
e.------------------------------------------------3------1---
B.------------------------------------------------4------1---
G.------------------------------------------------3------2---
D.------------------------------------------------5------3---
A.---------5--5--5--------6-6-6h8---------3------6------3---
E.---6---------------3--------------6---3----------------1---

NoTA:SE PUEDE LLEVAR LOS VERSOS CON EL SIMPLE BAJEO O CON LOS ACORDES
A MI PARECER SE OYE MEJOR EN LOS VERSOS SE HAGA CON BAJEO
PARA HACERLE UNA VARIACIÓN

VERSO # 1
       Bb            Dm
Te conocí un día de enero,
       Gm           Eb
con la luna en mi naríz
       Bb             Dm
Y como vi que eras sincero
       Gm         Cm
en tus ojos me perdí
          Eb
Que torpe distracción
            F
y que dulce sensación

VERSO # 2
mismos acordes que el verso anterior

Y ahora que andamos por el mundo
como Eneas y Benitin
ya te encontré varios rasguños
que te hicieron por ahí
pero mi loco amor
es tu mejor doctor

PUENTE

    Eb           Bb
Voy a curarte el alma en duelo
    Eb       Bb
voy a dejarte como nuevo
  Eb          Dm
y todo va a pasar
         Gm            Cm
pronto verás el sol brillar
           Eb      F
tú más que nadie mereces ser feliz

CORO

Bb       Dm
Ya vas a ver
     Eb
como van sanando
       F
poco a poco tus heridas
Bb       Dm
Ya vas a ver
     Eb
como va
   F            Dm    Gm     Cm     F           Bb
la misma vida a decantar la sal que sobra en el mar

SOLO:

e|--1--------------------------------------------------------|
B|-----3--------------------------4-4/6~---------------------|
G|-------3-2~------2-2h3-3/5~-5-7--------7---3/2~-2-2-2h3~---|
D|-----------------------------------------------------------|
A|-----------------------------------------------------------|
E|-----------------------------------------------------------|

e|--------------------------------------|
B|--------------------------------------|
G|--5-7-8/7-5/7-53-----5------5/7/5~~--|
D|-------------------5----8-------------|
A|--------------------------------------|
E|--------------------------------------|

Acordes utilizados:

     Bb   Eb   F    Dm      Gm   Cm

E||--1----3----1----1----|--3----3----||
B||--3----4----1----3----|--3----4----||
G||--3----3----2----2----|--3----5----||
D||--3----5----3----0----|--5----5----||
A||--1----6--------------|--5----3----||
E||----------------------|--3---------||
Suggest correction
Give kudos to tab author, rate the tab!
1 2 3 4 5
comments
print report bad tab
guest
You may want to rate the tab now too:
select rating
Wanna post a correction for this tab? Suggest correction