Oops, an error
Loading. Please wait.

Dia De Enero Tab

version 3
version 3

Whole song

by Shakira
149 views 1 this week
no commentswrite comment
1 2 3 4 5
3 more votes to show rating
add to favorites
×
Save as Personal and add changes to this tab that will be seen only by you. Learn more ›
×
You can save this tab as Personal to edit and correct it or add notes. All changes will be seen only by you. Learn more »
save as personal
new!
launch autoscroll
font size
0
reset
how to read this tab
guitar tuner
Autoscroll
slow
fast
+/-
esc
set tempo
stop
Author
Unregistered
*esta es la version correcta con su intro y todo

*TONOS
#||A#/Bb|D#/Eb| Gm  |  F  |  Cm ||
E||--1--|--3--|--3--|--1--|--3--||
B||--3--|--4--|--3--|--1--|--4--||
G||--3--|--3--|--3--|--2--|--5--||
D||--3--|--5--|--5--|--3--|--5--||
A||--1--|--6--|--5--|--3--|--3--||
E||-----|-----|--3--|--1--|-----||

*INTRO
                  Bb
E||----------------------|----------------------|
B||----------------------|----------------------|
G||----------------------|----------------------|
D||----------------------|----------------------|
A||--8--------8----x--8--|--x--8--8--8----------|
E||--6--------6----x--6--|--x--6--6--6----------|
                  Gm
----------------------|----------------------||
----------------------|----------------------||
----------------------|----------------------||
----------------------|----------------------||
--5--------5----x--5--|--x--5--5--5----------||
--3--------3----x--3--|--x--3--3--3----------||


*Verso

       Bb          Dm
Te conocí un día de enero,
       Gm           Eb
con la luna en mi naríz
       Bb             Dm
Y como vi que eras sincero
       Gm         Cm
en tus ojos me perdí
          Eb
Que torpe distracción
            F
y que dulce sensación


       Bb          Dm
Y ahora que andamos por el mundo
       Gm           Eb
como Eneas y Benitin
       Bb             Dm
ya te encontré varios rasguños
       Gm         Cm
que te hicieron por ahí
          Eb
pero mi loco amor
            F
es tu mejor doctor


    Eb           Bb
Voy a curarte el alma en duelo
    Eb       Bb
voy a dejarte como nuevo
  Eb          Dm
y todo va a pasar
         Gm            Cm
pronto verás el sol brillar
           Eb      F
tú más que nadie mereces ser feliz

CORO
Bb       Dm
Ya vas a ver
     Eb
como van sanando
       F
poco a poco tus heridas
Bb       Dm
Ya vas a ver
     Eb
como va
   F            Dm    Gm     Cm     F           Bb
la misma vida a decantar la sal que sobra en el mar


   1:18
e|---------------------------------------------------------|
B|--4/6~------------------------4-4/6~---------------------|
G|------7-5-3/2~-2-2h3-3/5~-5-7--------7/5-3/2~-2-2-2h3~---|
D|---------------------------------------------------------|
A|---------------------------------------------------------|
E|---------------------------------------------------------|

e|-----------------------------------|
B|-----------------------------------|
G|--5-7-8/7-5/7-5-3---5/7---5/7/5~~--|
D|------------------5-----8----------|
A|-----------------------------------|
E|-----------------------------------|

2da guitarra
Bb-Dm-Eb-F x2
Dm-Gm-Cm-F

Se repite verso con los mismos acordes:

       Bb          Dm
Y aunque hayas sido un extranjero hasta en tu propio país
       Gm           Eb
si yo te digo ¿cómo dices?
       Bb          Dm
tu aún dices ¿qué decís?
     Eb
y lloras de emoción
     F
oyendo un bandoneón.


Y aunque parezcas despistado con ese caminar pausado
conozco la razón que hace doler tu corazón
por eso quise hacerte esta canción

CORO

Bb       Dm
Ya vas a ver
     Eb
como van sanando
       F
poco a poco tus heridas
Bb       Dm
Ya vas a ver
     Eb
como va
   F            Dm    Gm     Cm     F           Bb
la misma vida a decantar la sal que sobra en el mar


Bb       Dm
Ya vas a ver
     Eb
como van sanando
       F
poco a poco tus heridas
Bb       Dm
Ya vas a ver
     Eb
como va
   F            Dm    Gm     Cm                 Bb
la misma vida a decantar la sal que sobra en el mar
Suggest correction
Give kudos to tab author, rate the tab!
1 2 3 4 5
comments
print report bad tab
guest
Wanna post a correction for this tab? Suggest correction