Oops, an error
Loading. Please wait.

Dont Bother Bass Tab

version 1
version 1

Whole song

Interactive

2,014 views 6 this week
1 commentread comment
1 2 3 4 5
1 last vote to show rating
add to favorites
launch autoscroll
font size
0
reset
guitar tuner
Autoscroll
slow
fast
+/-
esc
set tempo
stop
Help us to improve Ultimate-Guitar.com Take our survey!
×
Author
Artist     : Shakira
Song       : Don’t Bother


First part:
G--------------------------------------------|
D--------------------------------------------|
A--2222222222222222--------------------------|
E--------------------3333333333333333--------|
She's got the kind of look that defies gravity.

G--------------------------------------------|
D--------------------------------------------|
A--------------------3333333333333333-x2-----|
E--0000000000000000--------------------------|
She's the perfect cook, and she's fat-free.

G--------------------------------------------|
D--------------------------------------------|
A--2222222222222222--------------------------|
E--------------------3333333333333333--------|
She's been to private school, and she speaks perfect French.

G--------------------------------------------|
D--------------------------------------------|
A--------------------3333333333333333-x2-----|
E--0000000000000000--------------------------|
She's got her perfect friends, oh, isn't she cool.

G--------------------------------------------|
D--------------------------------------------|
A--2222222222222222--------------------------|
E--------------------3333333333333333--------|
She practices Tai Chi, she'd never lose her nerve.

G--------------------------------------------|
D--------------------------------------------|
A--------------------3333333333333333-x2-----|
E--0000000000000000--------------------------|
She's more than you deserve, oh she's just far better than me,

hey hey.

Chorus:
G-----------------------------------------|
D-----------------------------------------|
A------------55555555------------33333333-|
E--33333333------------55555555-----------|
So don't bother, I won't die of deception.

G-----------------------------------------|
D-----------------------------------------|
A------------55555555------------33333333-|
E--33333333------------55555555-----------|
Promise you won't ever see me cry. Don’t feel sorry

G-----------------------------------------|
D-----------------------------------------|
A------------55555555------------33333333-|
E--33333333------------55555555-----------|
So don't bother, I'll be fine, but she's waiting.

G-----------------------------------------|
D-----------------------------------------|
A------------55555555------------33333333-|
E--33333333------------55555555-----------|
The ring you gave to her will lose it's shine. So don't bother, be unkind.

Bridge:

G------------------------------------------------------------|
D------------------------------------------------------------|
A------------------------------------------------------------|
E--00000000--33333333--55555555--00000000--3333333333333333--|

Second part:
G--------------------------------------------|
D--------------------------------------------|
A--2222222222222222--------------------------|
E--------------------3333333333333333--------|
I bet she doesn't know how to touch you like I would.
G--------------------------------------------|
D--------------------------------------------|
A--------------------3333333333333333-x2-----|
E--0000000000000000--------------------------|
I beat her at that one good, don't you think so?

G--------------------------------------------|
D--------------------------------------------|
A--2222222222222222--------------------------|
E--------------------3333333333333333--------|
She's almost six feet tall, she must think I'm a flea.

G--------------------------------------------|
D--------------------------------------------|
A--------------------3333333333333333-x2-----|
E--0000000000000000--------------------------|
I'm really a cat, you see, and this is not my last life at all

hey hey.

Chorus:
G-----------------------------------------|
D-----------------------------------------|
A------------55555555------------33333333-|
E--33333333------------55555555-----------|
So don't bother, I won't die of deception.

G-----------------------------------------|
D-----------------------------------------|
A------------55555555------------33333333-|
E--33333333------------55555555-----------|
Promise you won't ever see me cry.

G-----------------------------------------|
D-----------------------------------------|
A------------55555555------------33333333-|
E--33333333------------55555555-----------|
So don't bother, I'll be fine, but she's waiting.

G-----------------------------------------|
D-----------------------------------------|
A------------55555555------------33333333-|
E--33333333------------55555555-----------|
The ring you gave to her will lose it's shine. So don't bother, be unkind.


Solo:
G------------------------------------------------------|
D------------------------------------------------------|
A--5-5-5-5-5-5-5-5-5-5-5-3-2---------------------------|
E----------------------------5-5-5-5-5-5-5-5-5-5-5-7-3-|

G------------------------------------------------------------|
D------------------------------------------------------------|
A--5-5-5-5-5-5-5-5-9-9-9-10-12--7-7-7-7-7-7-7-7-0-0-0-2----5-|
E-------------------------------------------------------3----|

Bride:

G------------------------------|
D------------------------------| x2
A----5555-------22222----------|
E---------55555-------33333----|         For you, I'd give up all I own
                                         And move to a communist country
                                         If you came with me, of course
                                         And I'd file my nails so they don't hurt you
                                         And lose those pounds, and learn about football
G------------------------------|         If it made you stay, but you won't, but you won't
D------------------------------| x2
A----5555------2222---2--------|
E---------5555-----------------|


Chorus:  x2

G-----------------------------------------|
D-----------------------------------------|
A------------55555555---------------------|
E--33333333------------55555555--55555555-|
So don't bother, I'll be fine, I'll be fine, I'll be fine, I'll be fine

G-----------------------------------------|
D-----------------------------------------|
A------------55555555---------------------|
E--33333333------------55555555--55555555-|
Promise you won't ever see me cry

G-----------------------------------------|
D-----------------------------------------|
A------------55555555------------33333333-|
E--33333333------------55555555-----------|
And after all I'm glad that I'm not your type

G-----------------------------------------|
D-----------------------------------------|
A------------55555555------------33333333-|
E--33333333------------55555555-----------|
Promise you won't ever see me cry


-Enjoy.
Suggest correction
Give kudos to tab author, rate the tab!
1 2 3 4 5
comments
print report bad tab
1 comment total.
0 reply
Pickleboy03 80 Jun 26, 2006 10:25 PM

Awesome tab! Good job, it's as good as your guitar tab, but it's a bass tab. Way to go!

guest
You may want to rate the tab now too:
select rating
Wanna post a correction for this tab? Suggest correction