Oops, an error
Loading. Please wait.

Hay Amores Tab

19,944 views 24 this week
no commentswrite comment
1 2 3 4 5
excellent!
x 3
add to favorites
launch autoscroll
font size
0
reset
how to read this tab
guitar tuner
Autoscroll
slow
fast
+/-
esc
set tempo
stop
Help us to improve Ultimate-Guitar.com Take our survey!
×
Author
"Hay Amores" - Shakira

Tuning:  Standard EADGBe

Comienzo:

e---0--0--0--0----1-------0----------0--0--0--0----1-------0-------|
B---1--1--1--1----3--3----0--0-------1--1--1--1----3--3----0--0----|
G--------------------2-------1------------------------2-------1----|
D-----2-----2----0--0------------------2-----1----0--0-------------|
A--0-----0------------------2-------0-----0------------------2-----|
E------------------------0--------------------------------0--------|
       LAm        REm      MI           LAm        REm       MI

e---0--0--0--0----2-------0----------------0--------|
B---1--1--1--1----0--0----0--0-------2--3--2--3--2--|
G--------------------2-------1-------2--2-----2--2--|
D-----2-----2-------1-------------------------------|
A--0-----0-------2----------2-------0---0--0--0--0--|
E------------------------0--------------------------|
       LAm        SIm7     MI             LA

e---0-----0-----|
B---1-1---0-----|
G-----2---1-----|
D--3------2-----|
A---------2-----|
E---------0-----|
    FA    MI


Ay mi piel, que no haria...

e---0--0--0--0----1-------0----------0--0--0--0----1-------0-------|
B---1--1--1--1----3--3----0--0-------1--1--1--1----3--3----0--0----|
G--------------------2-------1------------------------2-------1----|
D-----2-----2----0--0------------------2-----1----0--0-------------|
A--0-----0------------------2-------0-----0------------------2-----|
E------------------------0--------------------------------0--------|
       LAm        REm      MI           LAm        REm       MI

1er punteo de cuerdas (Cuando termina el verso:)

e--17---------12-13-10----------|
B----17-13-10----------12-10-9--|
G-------------------------------|
D-------------------------------|
A-------------------------------|
E-------------------------------|


ay mi piel, como el rio...

e---0--0--0--0----1-------0----------0--0--0--0----1-------0-------|
B---1--1--1--1----3--3----0--0-------1--1--1--1----3--3----0--0----|
G--------------------2-------1------------------------2-------1----|
D-----2-----2----0--0------------------2-----1----0--0-------------|
A--0-----0------------------2-------0-----0------------------2-----|
E------------------------0--------------------------------0--------|
       LAm        REm      MI           LAm        REm       MI

2do punteo de cuerdas (Cuando termina el verso:)

e--8--10--12--8-10-12-13-10----------|
B----------------------------12-10-9-|
G------------------------------------|
D------------------------------------|
A------------------------------------|
E------------------------------------|


hay amores, que se vuelven resistentes..

e---1--1--1--1-----------------------------------------|
B---3--3--1--1----------------1--1--1--1---1--1--1--1--|
G----------------2--2--1--1---2--2--2--2---0--0--0--0--|
D--0--0--0--0----2--2--2--2-----2-----2------2-----2---|
A---------------------2--2---0-----0------3-----3------|
E---------------0--0-----------------------------------|
    REm   REm6    MI#   MI        LAm          DO

------------------------------|
---1--1--1--1----1--1---------|
---2--2--2--2----2--2---1--1--|
----------------3--3----2--2--|
-----0-----0------------------|
--2-----2--------------0--0---|
    FA#m7-5     FA      MI

e-------------1--------0-----|
B---3--3--3--3---2--3--2--2--|
G---3--3--3--3---2--2-----2--|
D-----2-----2----------------|
A--------1-------0-0--0--0-0-|
E--0-----------------------0-|
     SIb             LA

3do punteo de cuerdas:

e--9--------12-10-9-------------|
B---10-9-8----------11/13/11-10-|
G-------------------------------|
D-------------------------------|
A-------------------------------|
E-------------------------------|


Hay amores que se esperan al invierno...

e---1--1--1--1-----------------------------------------|
B---3--3--1--1----------------1--1--1--1---1--1--1--1--|
G----------------2--2--1--1---2--2--2--2---0--0--0--0--|
D--0--0--0--0----2--2--2--2-----2-----2------2-----2---|
A---------------------2--2---0-----0------3-----3------|
E---------------0--0-----------------------------------|
    REm   REm6    MI#   MI        LAm          DO

------------------------------|
---1--1--1--1----1--1---------|
---2--2--2--2----2--2---1--1--|
----------------3--3----2--2--|
-----0-----0------------------|
--2-----2--------------0--0---|
    FA#m7-5     FA      MI

e---0--0--0--0----1-------0------|
B---1--1--1--1----3--3----0--0---|
G--------------------2-------1---|
D-----2-----2----0--0------------|
A--0-----0------------------2----|
E------------------------0-------|
     LAm           REm     MI

4to punteo de cuerdas:

e--8-10-12-13-10----------|
B----------------12-10-9--|
G-------------------------|
D-------------------------|
A-------------------------|
E-------------------------|


SOLO

e---0--0--0--0----1-------0----------0--0--0--0----1-------0-------|
B---1--1--1--1----3--3----0--0-------1--1--1--1----3--3----0--0----|
G--------------------2-------1------------------------2-------1----|
D-----2-----2----0--0------------------2-----1----0--0-------------|
A--0-----0------------------2-------0-----0------------------2-----|
E------------------------0--------------------------------0--------|
       LAm        REm      MI           LAm        REm       MI

e---0--0--0--0----2-------0----------------0------|
B---1--1--1--1----0--0----0--0-------2--3--2---2--|
G--------------------2-------1-------2--2------2--|
D-----2-----2-------1-----------------------------|
A--0-----0-------2----------2-------0---0--0---0--|
E------------------------0------------------------|
     LAm          SIm7     MI              LA

e---0-----0-----|
B---1-1---0-----|
G-----2---1-----|
D--3------2-----|
A---------2-----|
E---------0-----|
    FA    MI


Ay mi piel, no te olvides del mar...

e---0--0--0--0----1-------0----------0--0--0--0----1-------0-------|
B---1--1--1--1----3--3----0--0-------1--1--1--1----3--3----0--0----|
G--------------------2-------1------------------------2-------1----|
D-----2-----2----0--0------------------2-----1----0--0-------------|
A--0-----0------------------2-------0-----0------------------2-----|
E------------------------0--------------------------------0--------|
       LAm        REm      MI           LAm        REm       MI

5to punteo de cuerdas:

e--5--0-1-3--1/3/1/0--|
B---------------------|
G---------------------|
D---------------------|
A---------------------|
E---------------------|


Ay mi piel, no te olvides del dia...

e---0--0--0--0----1-------0----------0--0--0--0----1-------0-------|
B---1--1--1--1----3--3----0--0-------1--1--1--1----3--3----0--0----|
G--------------------2-------1------------------------2-------1----|
D-----2-----2----0--0------------------2-----1----0--0-------------|
A--0-----0------------------2-------0-----0------------------2-----|
E------------------------0--------------------------------0--------|
       LAm        REm      MI           LAm        REm       MI

6to punteo de cuerdas:

e--9-------12/10/9--------|
B---10/9/8---------11/10--|
G-------------------------|
D-------------------------|
A-------------------------|
E-------------------------|


hay amores, que se vuelven resistentes..

e---1--1--1--1-----------------------------------------|
B---3--3--1--1----------------1--1--1--1---1--1--1--1--|
G----------------2--2--1--1---2--2--2--2---0--0--0--0--|
D--0--0--0--0----2--2--2--2-----2-----2------2-----2---|
A---------------------2--2---0-----0------3-----3------|
E---------------0--0-----------------------------------|
    REm   REm6    MI#   MI        LAm          DO

------------------------------|
---1--1--1--1----1--1---------|
---2--2--2--2----2--2---1--1--|
----------------3--3----2--2--|
-----0-----0------------------|
--2-----2--------------0--0---|
    FA#m7-5     FA      MI

e-------------1--------0-----|
B---3--3--3--3---2--3--2--2--|
G---3--3--3--3---2--2-----2--|
D-----2-----2----------------|
A--------1-------0-0--0--0-0-|
E--0-----------------------0-|
       SIb           LA

3do punteo de cuerdas:

e--9--------12-10-9-------------|
B---10-9-8----------11/13/11-10-|
G-------------------------------|
D-------------------------------|
A-------------------------------|
E-------------------------------|


Hay amores que se esperan al invierno...

e---1--1--1--1-----------------------------------------|
B---3--3--1--1----------------1--1--1--1---1--1--1--1--|
G----------------2--2--1--1---2--2--2--2---0--0--0--0--|
D--0--0--0--0----2--2--2--2-----2-----2------2-----2---|
A---------------------2--2---0-----0------3-----3------|
E---------------0--0-----------------------------------|
    REm   REm6    MI#   MI        LAm          DO

------------------------------|
---1--1--1--1----1--1---------|
---2--2--2--2----2--2---1--1--|
----------------3--3----2--2--|
-----0-----0------------------|
--2-----2--------------0--0---|
    FA#m7-5     FA      MI

e---0--0--0--0----1-------0------|
B---1--1--1--1----3--3----0--0---|
G--------------------2-------1---|
D-----2-----2----0--0------------|
A--0-----0------------------2----|
E------------------------0-------|
     LAm          REm     MI

2do punteo de cuerdas (Cuando termina el verso:)

e--8--10--12--8-10-12-13-10----------|
B----------------------------12-10-9-|
G------------------------------------|
D------------------------------------|
A------------------------------------|
E------------------------------------|


yo por ti....

7mo punteo de cuerdas:

e---12/10/8/10/12/13/10---------|
B----------------------/12/10/9-|
G--9----------------------------|
D-------------------------------|
A-------------------------------|
E-------------------------------|


por ti...

8vo punteo de cuerdas:

e--5-7-8-5-7-8--10/7--------|
B-------------------/10/9---|
G-------------------/10/9---|
D---------------------------|
A---------------------------|
E---------------------------|

como el amor que siento yo por ti
                                LAm

Chords:

1--0---1---0--2---0--x---1---0---x-----0----x------|
2--1---3---0--0---2--1---1---1---3-----0----1------|
3--2---2---1--2---2--2---2---0---3-----2----2------|
4--3---0---2--1---2--3---0---2---2-----2----2------|
5--0---x---2--2---0--x---x---3---1-----2----0------|
6--x---x---0--x---x--x---x---x---0-----0----2------|
  LAm REm MI SIm7 LA FA REm6 DO SIb-5 MI# FA#m7-5    ACORDE
Suggest correction
What's this?
You can suggest a correction to this tab. Community and Mods will review your correction and vote to approve or reject it.
comments
We did not receive enough feedback on this tab! Please rate:
print report bad tab
1 2 3 4 5
guest
You may want to rate the tab now too:
select rating
Please do not post tabs as comments. Select "correction" instead!