Oops, an error
Loading. Please wait.

Hips Dont Lie Tab

version 2
version 2

Whole song

Interactive

2,034 views 3 this week
no commentswrite comment
1 2 3 4 5
please rate
add to favorites
launch autoscroll
font size
0
reset
how to read this tab
guitar tuner
Autoscroll
slow
fast
+/-
esc
set tempo
stop
Help us to improve Ultimate-Guitar.com Take our survey!
×
Author
Intro.

e-10-9-7----------7-------|
B--------8---8-10---8-----|
G-------------------------|
D-------------------------|
A-------------------------|
E-------------------------|

e-9-7---------------------|
G-----10-7---7-8-10-7-----|
B-------------------------|
D-------------------------|
A-------------------------|
E-------------------------|

e-7-------9-7----7--------|
G---10-8------10----------|
B-------------------------|
D-------------------------|
A-------------------------|
E-------------------------|

this riff is repeated several times during the verses


e-12-13-12-10-------------|
G-------------13-12-10----|
B-------------------------|
D-------------------------|
A-------------------------|
E-------------------------|
Suggest correction
Give kudos to tab author, rate the tab!
1 2 3 4 5
comments
print report bad tab
guest
You may want to rate the tab now too:
select rating
Wanna post a correction for this tab? Suggest correction