Oops, an error
Loading. Please wait.

Illegal Tab

3,453 views 3 this week
no commentswrite comment
1 2 3 4 5
excellent!
x 4
add to favorites
launch autoscroll
font size
0
reset
how to read this tab
guitar tuner
Tab Pro tools
  • play this tab
  • loop segment
  • change instrument
  • show fretboard
  • metronome
×
Best way to learn
"Illegal"
Autoscroll
slow
fast
+/-
esc
set tempo
stop
Contributor
Difficulty
intermediate
Illegal by Shakira feat. Carlos Santana


Con Shakira...

Intro: D - Bm


Em                      A
Who would have thought that you could hurt me
                     Em                         A
The way you've done it? So deliberate, so determined
                          Em (Riff 1)             A
And since you have been gone I bite my nails for days and hours
      Em                          A
And question my own questions on and on

    F#m     Bm (Riff 2)
So tell me now,
 F#m     Bm (Riff 3)
tell me now
                G
why you're so far away
               A
when I'm still so close.


CORO
  D                                               F#m
You don't even know the meaning of the words "I'm sorry"
                     G
You said you would love me until you die
                Bm                 A
And as far as I know you're still alive, baby
   (Riff 4)
  D                                              F#m    F#m-Fm-Em
You don't even know the meaning of the words "I'm sorry"
                                       Gm
I'm starting to believe it should be illegal
                       D    Bm (Riff 5)
to deceive a woman's heart.


Em                      A       (Riff 6)
I tried so hard to be attentive
             Em                                A    (Riff 7)
To all you wanted always supportive, always patient
             Em    (Riff 8)               A    (Riff 9)
What did I do wrong? I'm wondering for days and hours
    Em                                  A
It's here, it isn't here where you belong.

F#m  Bm (Riff 3) F#m  Bm
Anyhow,           anyhow
            G  (Riff 10)
I wish you both all the best
                 A
I hope you get along.

  D
But you don't even know the meaning
                   F#m
of the words "I'm sorry"
                     G
You said you would love me until you die
                Bm                 A
And as far as I know you're still alive, baby
   (Riff 11)
  D                                              F#m    F#m-Fm-Em
You don't even know the meaning of the words "I'm sorry"
                                       Gm
I'm starting to believe it should be illegal
                       D    Bm
to deceive a woman's heart.


*SOLO*


  D                                               F#m
You don't even know the meaning of the words "I'm sorry"
                     G
You said you would love me until you die
                Bm                 A
And as far as I know you're still alive, baby
  D                                              F#m    F#m-Fm-Em
You don't even know the meaning of the words "I'm sorry"
                                       Gm
I'm starting to believe it should be illegal
                       D
to deceive a woman's heart.

D      Bm        G
Open heart Open heart
              Bm           A                D
It should be illegal to deceive a woman's heart
D      Bm        G
Open heart Open heart
              Gm                             D
It should be illegal to deceive a woman's heart


RIFFS

Riff 1
e|-----------------|
B|--12..-----------|
G|-<14>..--14/12---|
D|--------------14-|
A|-----------------|
E|-----------------|

Riff 2
e|----------10-----|
B|----10-12----12.-|
G|-11--------------|
D|-----------------|
A|-----------------|
E|-----------------|

Riff 3
e|-------14-----|
B|-15-17----15.-|
G|--------------|
D|--------------|
A|--------------|
E|--------------|

Riff 4
e|-----14.--------<17>.<17>..-|
B|-15.-----15-14.-------------|
G|----------------------------|
D|----------------------------|
A|----------------------------|
E|----------------------------|

Riff 5
e|----9-10-12-------------------|
B|-12---------12-10/12.-12/10---|
G|---------------------------11-|
D|------------------------------|
A|------------------------------|
E|------------------------------|

Riff 6
e|-------------------------------------|
B|-12-10-10/12.--10/12-10--------------|
G|------------------------9-7-7/9-7-7.-|
D|-------------------------------------|
A|-------------------------------------|
E|-------------------------------------|

Riff 7
e|---------------|
B|---------------|
G|-9/11-9-7-7/9.-|
D|---------------|
A|---------------|
E|---------------|

Riff 8
e|--14..-----------|
B|-<17>..--17/15---|
G|--------------16-|
D|-----------------|
A|-----------------|
E|-----------------|

Riff 9
e|-------10-10.-|
B|-10/12--------|
G|--------------|
D|--------------|
A|--------------|
E|--------------|

Riff 10
e|-15-14----|
B|-------15-|
G|----------|
D|----------|
A|----------|
E|----------|

Riff 11
e|-----14.---------------17------17-17----17--<17><17>..-|
B|-15.-----15-14.---17/19---17/19------19----------------|
G|-------------------------------------------------------|
D|-------------------------------------------------------|
A|-------------------------------------------------------|
E|-------------------------------------------------------|
comments
print report bad tab
I want to post or [tab]
guest
You may want to rate the tab now too:
select rating
Please do not post tabs as comments. Select "correction" instead!