Oops, an error
Loading. Please wait.

La Despedida Tab

by Shakira
469 views 1 this week
no commentswrite comment
1 2 3 4 5
3 more votes to show rating
add to favorites
×
Save as Personal and add changes to this tab that will be seen only by you. Learn more ›
×
You can save this tab as Personal to edit and correct it or add notes. All changes will be seen only by you. Learn more »
save as personal
new!
launch autoscroll
font size
0
reset
how to read this tab
guitar tuner
Autoscroll
slow
fast
+/-
esc
set tempo
stop
Tab Charango:
         (             dos veces              )
E||-------------|--------------|----------2---|
A||----0------0-|------0-------|------2------2|
E||--2----------|--------------|----2---------|
C||-------3-----|-----------3--|--------2---2-|
G||------6-6----|---6----6-----|--------------|


         (             dos veces
E||--------2------|--------2-----|-------2-|
A||--2------------|-----2------2-|-2--2----|
E||---------------|---2----------|-4-------|
C||-----2---------|-------2---2--|---2-2---|
G||---------------|--------------|---------|


E||-------1-----|--------2-----|----------2---|
A||----0-----0--|----2---------|------2------2|
E||--2----------|--------------|----2---------|
C||-----1--1----|--2---2-------|--------2---2-|
G||-------------|--------------|--------------|


E||--------2------|---------2----|-------2-|
A||--2------------|-----2-------2|---2-----|
E||---------------|---2----------|---4-----|
C||-----2---------|-------2---2--|------2--|
G||---------------|--------------|---------|


No hay más vida no hay, no hay más vida no hay

E||-------1-----|--------2-----|
A||----0-----0--|----2---------|
E||--2----------|--------------|
C||-----1--1----|--2---2-------|
G||-------------|--------------|

no hay más lluvia no hay, no hay más brisa no hay

E||----------2---|--------2------|---------2----|-------2-|
A||------2------2|--2------------|-----2-------2|---2-----|
E||----2---------|---------------|---2----------|---4-----|
C||--------2---2-|-----2---------|-------2---2--|------2--|
G||--------------|---------------|--------------|---------|

no hay más risa no hay , no hay más llanto no hay

E||-------1-----|--------2-----|
A||----0-----0--|----2---------|
E||--2----------|--------------|
C||-----1--1----|--2---2-------|
G||-------------|--------------|

no hay más miedo no hay,  no hay más canto no hay

E||----------2---|--------2------|---------2----|-------2-|
A||------2------2|--2------------|-----2-------2|---2-----|
E||----2---------|---------------|---2----------|---4-----|
C||--------2---2-|-----2---------|-------2---2--|------2--|
G||--------------|---------------|--------------|---------|


E||-------------|--------------|
A||----0------0-|------0-------|
E||--2----------|--------------|
C||-------3-----|-----------3--|
G||------6-6----|---6----6-----|


 FA#m (empieza LA guitarra)

     RE           SIm
Llévame, donde estés
   FA#m
llévame
     RE          SIm
llévame, donde estés

FA#m    D7M9   FA#m
llévame

FA#m            RE
Cuando alguien se va,
             SIm         FA#m     D7M9  FA#m
el que se queda sufre más
FA#m            RE
cuando alguien se va,
             SIm         FA#m     D7M9  FA#m
el que se queda sufre más


FA#m   D7M9  FA#  D7M9
No hay más sueños, no hay,
 FA#m   D7M9  FA#  D7M9
no hay más tiempo, no hay

SIm                Fdim
no hay más miedo, no hay
SIm                Fdim
no hay más fuego, no hay

FA#m   D7M9  FA#  D7M9
no hay más vida, no hay
FA#m   D7M9  FA#  D7M9
no hay más vida, no hay

SIm                Fdim
no hay más rabia, no hay
SIm                Fdim
no hay más sueño, no hay

FA#m  D7M9   FA


    RE         SIm     FA#m     D7M9  FA#m

llévame donde estés, llévame
    RE         SIm     FA#m      D7M9  FA#m
llévame donde estés, llévame

FA#m            RE
Cuando alguien se va,
            SIm        FA#m  D7M9  FA#m
el que se queda sufre más
FA#m            RE
cuando alguien se va,
           SIm        FA#m  D7M9  FA#m
 el que se queda sufre más
FA#m  D7M9
sufre más...

FA#m  D7M9
sufre más..


D7M9:   o puede ser sin
 tocar la cuarta
cuerda en el cuarto espacio de
 jandolo en el cejillo,
 o sea en dos, no sé e nverdad.

E--2--
B--3--
G--2--
D--4--
A--4--
E--2-

Fdim
E--4--
B--3--
G--4--
D--3--
A--0--
E-0-


Por y para Pamela oyarzun Muñoz.
Que esta canción quede
como testimonio
de cuánto
te amé.Te amaré por siempre.
ESto es por la canción que te debo
, algún día, quizás en otra vida
o cuando la vida nos una nuevamente
te la cantaré al oído,
mientras se feliz yo lo seré por
haber fijado, un día como estos,
tus labios en los mios?
Suggest correction
Give kudos to tab author, rate the tab!
1 2 3 4 5
comments
print report bad tab
guest
Wanna post a correction for this tab? Suggest correction