Oops, an error
Loading. Please wait.

Mon Amour Tab

3,159 views 3 this week
no commentswrite comment
1 2 3 4 5
please rate
add to favorites
launch autoscroll
font size
0
reset
how to read this tab
guitar tuner
Tab Pro tools
  • play this tab
  • loop segment
  • change instrument
  • show fretboard
  • metronome
×
Best way to learn
"Mon Amour"
Autoscroll
slow
fast
+/-
esc
set tempo
stop
Contributor
Capo
3rd fret
Its been awhile since I've ever submitted a tab, but hopefully this tabs good enough for 
beginners like me.

If anyone knows how to play the verse and prechorus, please email me, it'll help me out.
atticusl3@yahoo.com

(You can also play this with a Capo 3 (capo on the third fret) but i think in the song i 
a slide so I'm pretty sure it doesn't need a capo. Plus i think this may be Bass not 
in the intro, but in case you want to play it anyway.)

Intro 0:00 - 0:20

Guitar 1                                        |====This Part 2x=====|
e ----------------------| ----------------------|----------------------|
b ----------------------| ----------------------|----------------------|
g ----------------------| ----------------------|----------------------|
D ----------------------| ----------------------|----------------------|
A --3--33--3-3-3/777----| -3--33--3-3-3-555-(3)-|----------------------|
E ----------------------| ----------------------|-5--55--5-5-5-333-----|

Guitar 2 (background)
e -5---5----3-----------|
b ---6---6--------------|
g ----------------------|
D ----------------------|
A ----------------------|
E ----------------------|

Play a variation of the intro til Guitar 2 joins in at 0:33 seconds.

0:33 - 0:46
Verse
e ------------5-5-------|
b -555-6p5-5---6-6--5---|
g ----------------------|
D ----------------------|
A ----------------------|
E ----------------------|

Prechorus - 0:46 (And so you think of me when you arrive..)
e -5-5-5-5-5-5-5-5-|-----------------|-7-7-7-7-7-7-7-7---------|
b -6-6-6-6-6-6-6-6-|-5-5-5-5-5-5-5-5-|-6-6-6-6-6-6-6-6---------|
g -5-5-5-5-5-5-5-5-|-5-5-5-5-5-5-5-5-|-7-7-7-7-7-7-7-7---------|
D -----------------|-5-5-5-5-5-5-5-5-|-------------------------|
A -----------------|-----------------|-------------------------|
E -----------------|-----------------|-------------------------|

Chorus - Guitar 1 "When you learn your lesson" (get the rhythm of strumming)
e ---------------------|------------------------------|
b ---------------------|------------------------------|
g -5555----------------|-5555--7777-------------------|
D -5555-5555-77777777--|-5555--7777--777777777--------|
A -3333-5555-77777777--|-3333--5555--777777777--------|
E ------3333-55555555--|-------------555555555--------|

Chorus - Guitar 2 (Main Riff - During the last chorus this riff is played variously )
e -----------------------------------|
b------------------------------------|
g ------21-16-15---------------------|
D --17-------------------------------|
A -----------------------------------|
E -----------------------------------|

Bridge - 2:42 (It's your destination...)
e ------------------------------------|
b-------------------------------------|
g --10------9-------14----17----------|
D --X-------X-------X-----X-----------|
A --8-------7-------12----15----------|
E ------------------------------------|

Bridge pt 2
e -------------------------------------|
b--------------------------------------|
g -17---19--19-19-19-19-21-21-21-21----|
D -X----X------------------------------|
A -15---17-----------------------------|
E -------------------------------------|

Outro - 3:47(Passangers) Let chords ring out.
e -------------------------------------------|
b--------------------------------------------|
g ----21-16--10-9---10~-9--10--12--14--------|
D -17--------X--X---X~--X--X---X---X---------|
A -----------8--7---8~--7--8---10--12--------|
E -------------------------------------------|
comments
We did not receive enough feedback on this tab! Please rate:
print report bad tab
1 2 3 4 5
I want to post or [tab]
guest
You may want to rate the tab now too:
select rating
Please do not post tabs as comments. Select "correction" instead!