Oops, an error
Loading. Please wait.

Moscas En La Casa Tab

10,689 views 3 this week
1 commentread comment
1 2 3 4 5
x 7
add to favorites
launch autoscroll
font size
0
reset
how to read this tab
guitar tuner
Autoscroll
slow
fast
+/-
esc
set tempo
stop
Help us to improve Ultimate-Guitar.com Take our survey!
×
Author
Difficulty
novice
This is such a sad song! Hope you like it!

The first guitar does this while the second plays the chords, you have to hear the song 
play it exactly. I believe is easier to improvise the picking (based on this notes) :)


E------------------------------------------------|
A---10-------------------------------------------|
D-----10-----------------------------------------|
G--------9-9/12-(9)------------------------------|
B-------------------------------13-10-9h10---10--|
e-------------------10/12-12-10------------9-----|

E------------------------------------------------|
A------------------------------------------------|
D------------------------------------------------|
G------------------------------------------------|
B-------------13-10-----10---------10-10-10/12---|
e--10/12-12-10------9h8----8h9-9-8---------------|

E------------------------------------------------|
A------------------------------------------------|
D------------------------------------------------|
G---------------------------12-9-10--------------|
B--12-10-8-10---10---9-12-9----------------------|
e-------------8----8-----------------------------|

Chords

  C                     Am
Mis días sin ti son tan oscuros
    Am7                       F
tan largos tan grises mis dias sin ti
                         G
mis días sin ti son tan absurdos
                               C
tan agrios tan duros mis dias sin ti


  C                      Am
Mis días sin ti no tienen noche
           Am7              F
si alguna aparece es inútil dormir
                        G
mis días sin ti son un derroche
                               Am
las horas no tienen principio ni fin

               Am7
Tan faltos de aireeeeeeeeee...
  F
tan llenos de nadaaaaaaaaaa...
 Dm                               G
chatarra inservible, basura en el suelo,
            C
moscas en la casa


[Solo: C Am F G]

E----------------------------------------------------------|
A-10-------------------------------------------------------|
D---10-----------------------------------------------------|
G-----9-9/12(9)--------------------------------------------|
B---------------------------13-10-9h10-10------------13-13-|
e---------------10/12-12-10-----------9---12-13-12-10------|

E------------------------------------------------------------|
A------------------------------------------------------------|
D----------------------------------------------------12-9-10-|
G-------------------------10/12--8/10-8-10---------10--------|
B-9h10-12/13--10/12--8/10-----------------12-10-8-8----------|
e------------------------------------------------------------|


   C                       Am
Mis días sin ti son como un cielo
           Am7                  F
sin lunas plateadas ni rastros de sol
                            G
mis días sin ti son solo un eco
                           Am
que siempre repite la misma canción


        Am7
Tan faltos de aireeeeeeeeee
  F
tan llenos de nadaaaaaaaaaa
 Dm                               G
chatarra inservible, basura en el suelo,
            C
moscas en la casa


   Em          Em7              Am                     Am7
Pateando las piedras aún sigo esperando, que vuelvas conmigo
     Dm     Dm7                     G
aún sigo buscando en las caras de ancianos, pedazos de niño

   Em      Em7                Am                    Am7
Cazando motivos que me hagan creer que aún sigo con vida
  D                                G                   C
mordiendo mis uñas, ahogándome en llanto, extrañándote tanto


Ending:

  Am       Am7             F
Mis días sin ti, mis dias sin ti
            G                      C
mis dias sin ti, cómo duelen los dias sin ti
     Am       Am7
sin tiiiiiiiiiiiiii...
     F
sin tiiii...
  G
iiiii...
Suggest correction
comments
print report bad tab
1 comment total.
0 reply
DiscJockeyJT 16 May 23, 2011 07:36 PM

I hate that you tabbed this backwards.... high e string goes first not last... u made a great tab, annoying...

guest
You may want to rate the tab now too:
select rating
Wanna post a correction for this tab? Suggest correction