Oops, an error
Loading. Please wait.

Octavo Dia Tab

version 2
version 2

Whole song

Interactive

1,278 views 1 this week
no commentswrite comment
1 2 3 4 5
2 more votes to show rating
add to favorites
launch autoscroll
font size
0
reset
how to read this tab
guitar tuner
Autoscroll
slow
fast
+/-
esc
set tempo
stop
Help us to improve Ultimate-Guitar.com Take our survey!
×
Artist: Shakira
Song: Octavo dia
Tabbed by: Carlos ramirez
Tuning: Standard

INTRO: (keyboard)
e|--------------------------------------------------------|
B|------3----3-----2----2-----------------------2---------|
G|------4----4-----2----2-----4----4-----4------2---------| (2)
D|--------4----4-----4----4---4----4-----4---------4------|
A|-------------------------------5----5-----5-------------|
E|--------------------------------------------------------|


VERSE:( I've added the bass in case you want to play it)


e|-----------------------------------------------------------------------|
B|-3----3----------2---------2------------------3----3----3----2---------|
G|-4----4----------2---------2------------------4----4----4----2---------|
D|---4----4----------4---------4------------------4----4----4----4-------|
A|-2---------------0-------------------------------------------0---------|
E|----------------------------------------------3------------------------|
        el octavo dia     dios      despues de tanto trabajar
        quien se iba a imaginar que el mismo  Dios al regresar

e|-----------------------------------------------------------------------|
B|-3----3----------2---------2------------------3----3----3----2---------|
G|-4----4----------2---------2------------------4----4----4----2---------|
D|---4----4----------4---------4------------------4----4----4----4-------|
A|-2---------------0-------------------------------------------0---------|
E|----------------------------------------------3------------------------|
       para liberar tensiones  luego            ya de revisar
       iba a encontrarlo todo en un             desorden infernal


e|-----------------------------------------------------------------------|
B|-3----3----------2---------2------------------3----3----3----2---------|
G|-4----4----------2---------2------------------4----4----4----2---------|
D|---4----4----------4---------4------------------4----4----4----4-------|
A|-2---------------0-------------------------------------------0---------|
E|----------------------------------------------3------------------------|
      dijo todo esta muy bien es hora de descansar
      y que se iba a convertir en un en un desempleado mas

e|---------------------------------------------------------------------|
B|-3-----------3--------------2---------2----------3----3----3----3----|
G|-4-----------4--------------2---------2----------4----4----4----4----|
D|---4-----------4--------------4---------4----------4----4----4----4--|
A|-2--------------------------0----------------------------------------|
E|-------------------------------------------------3-------------------|
   y se fue a dar un paseo por el  espacio sideral
   de la tasa que anualmente   esta creciendo..

e|---------------------------------|
B|--------------3---3---3----2-----|
G|--------------4---4---4----2-----|
D|----------------4---4---4----2---|
A|---------------------------0-----|
E|--------------3------------------|
    ..sin parar

e|--2---2------0----0----------------------------------------------------|
B|--3---3------2----2--------------------3---3---3-----------------------|
G|----2---2------2----2------------------4---4---4-----------------------|
D|--0--------------------------------------4---4---4---------------------|
A|-------------4-------------------------2-------------------------------|
E|-----------------------------------------------------------------------|
       desde entonces hay quienes lo han visto


e|--------------------------------------------------------------------|
B|-----2-----------3----3----3---3---------0--0---2--3--5-------------|
G|-----2-----------4----4----2---2---------2--1---2-------------------|
D|-------2-----------5----5----4---4-------2--2---2-------------------|
A|-----0------------------------------------------0--2--4-------------|
E|-----------------3---------2-------------0--------------------------|
       solo en las calles         transitar

e|--2---2------0----0----------------------------------------------------|
B|--3---3------2----2--------------------3---3---3-----------------------|
G|----2---2------2----2------------------4---4---4-----------------------|
D|--0--------------------------------------4---4---4---------------------|
A|-------------4-------------------------2-------------------------------|
E|-----------------------------------------------------------------------|
      aun esperando paciente    por      alguien


e|----------------------------------------------------------------------|
B|------------------2---------3---3-----3----3---3---3------3-----------|
G|------------------2---------4---4-----2----2---2---2------0-----------|
D|--------------------2---------4---4-----3----3---2---2----1-----------|
A|------------------0---------------------------------------------------|
E|----------------------------3---------1--------0----------------------|
      con quien al menos tranquilo     pueda     conver-    sar...

(CHORUS)

e|---------------------5----------3----------------------------|
B|-------7-------------5----------3----3--------5--------------|
G|-------7-------------6----------4----3--------5--------------|
D|---7-7-7-------------7----------5----3--------5------------7-|
A|---5-5-5-------7-7---7----5-5---5----1--------3------------5-|
E|---------------5-5---5----3-3---3----------------------------|
        mientras tanto este mundo gira gira sin poderlo detener

e|---------------------5----------3--------------------------------------|
B|-------7-------------5----------3----3--------5------------------------|
G|-------7-------------6----------4----3--------5------------------------|
D|-----7-7-------------7----------5----3--------5-----------------9------|
A|-----5-5-------7-7---7----5-5---5----1--------3-----------------7------|
E|---------------5-5---5----3-3---3--------------------------------------|
        y aqui abajo unos cuantos nos manejan como piezas de ajedrez

e|-----7-----------------3----------------------------5------------------|
B|-----8-----------------3----------------7-----------5------------------|
G|-----9-----------------4----------------7-----------6------------------|
D|--9--9-----------------5-----------7-7--7-----------7------------------|
A|--7--7------5---5------5-----------5-5--5------7-7--7------------------|
E|------------3---3------3-----------------------5-5--5------------------|
    no soy la clase de idiota que se deja convencer


e|-------7--------------------------5------------------------------------|
B|-------8--------------------------5-------------3----3-----------------|
G|-------9--------------------------6-------------4----4-----------------|
D|-------9--------------------------7---------------4----4---------------|
A|-------7--------------------------7-------------2----------------------|
E|----------------------------------5------------------------------------|
   pero digo la verdad  y hasta un ciego lo puede ver.........


(same as 1rst part of verse),verse, chorus, and finally the same pattern for the 1rst 
of the verse over and over...

This is the riff that goes along with the last part of the song

e|--------10------9------------7-----9--------------|
B|-----12----12-----10-------7---7----10----10------|
G|--11-----------------11--7-------------11---------| (repeat).....
D|--------------------------------------------------|
A|--------------------------------------------------|
E|--------------------------------------------------|
Suggest correction
Give kudos to tab author, rate the tab!
1 2 3 4 5
comments
print report bad tab
guest
You may want to rate the tab now too:
select rating
Wanna post a correction for this tab? Suggest correction