Oops, an error
Loading. Please wait.

Sombra De Ti Tab

95 views 1 this week
no commentswrite comment
1 2 3 4 5
3 more votes to show rating
add to favorites
launch autoscroll
font size
0
reset
how to read this tab
guitar tuner
×
Best way to learn
"Sombra De Ti"
Autoscroll
slow
fast
+/-
esc
set tempo
stop
Soy nuevo en esto, creo que esta tablatura la saqué bien, pero queda a su juicio

Esta es mi interpretación del solo que va después del segundo coro

E|---------------------------------------------------------------|
B|-----------------------------10v---(12)-10-10-10h12b-10--------|
G|---6/9-7-6--------6---7-6-9------------------------------------|
D|-----------7v-------7------------------------------------------|
A|---------------------------------------------------------------|
E|---------------------------------------------------------------|


FINAL (alrededor del minuto 3:19)
E|---(12)?---------------------|
B|----(12)-12/10-------10/---?-|
G|-----------------------------|
D|-----------------------------|
A|-----------------------------|
E|-----------------------------|

Las notas entre paréntesis son armónicos

Espero que les agrade
y pues esto se la dedico a Yadira

?Como siempre hoy estoy, pensando en ti?
Suggest correction
Give kudos to tab author, rate the tab!
1 2 3 4 5
comments
print report bad tab
guest
You may want to rate the tab now too:
select rating
Wanna post a correction for this tab? Suggest correction