Oops, an error
Loading. Please wait.

Underneath Your Clothes tab

version 1
version 1

Whole song

by Shakira
67,460 views 57 this week
26 commentsread comments
1 2 3 4 5
x 20
add to favorites
×
Save as Personal and add changes to this tab that will be seen only by you. Learn more ›
×
You can save this tab as Personal to edit and correct it or add notes. All changes will be seen only by you. Learn more »
launch autoscroll
font size
0
reset
how to read this tab
guitar tuner
edit
Autoscroll
slow
fast
+/-
esc
set tempo
stop
Author
Unregistered
Hey,  This is for whoever needed this song really bad.  It's not perfect in a few spots
but its really close. By the way check out the song I wrote under "misc. your songs" its
called "Change".

Tuning-EADGBe


[Intro]

e|----------------------------|
B|----------------------------|
G|------5---------------------|
D|--------6--8-8--6-----5-5-5-|
A|-----------------4----4-4---|
E|---4------------------------|


e|---------------------------|
B|---------------------------|
G|------5--------------------|
D|--------6--8-8/11----5/6\5-|
A|---------------------------|
E|---4-----------------------|


[Verse]

e|----1---------4-3------|
B|------1----------------|
G|--3-----1--------------|    2x's
D|-----------4-----------|
A|-----------------------|
E|-----------------------|

[Pre-Chorus]

e|-4-4---3-3---1-1---4-3-|
B|-----------------------|
G|-----------------------|
D|-----------------------|
A|-----------------------|
E|-----------------------|

-4-4----4--------3-3---|
-------2---------------|
------1----------------|
-----3-----------------|
-----------------------|

[Chorus]

e|-----------------------------|
B|-----------------------------|
G|-----------------------------|
D|-----6-----10----11---11--11-|    2x's
A|-----6-----10----11-----11---|
E|---4-4---8-8---9-9--9--------|

e|----------------------------|
B|----------------------------|
G|----------------------------|
D|-----6-----8--13------------|
A|----3------8--13------------|
E|---4---4---6--11------------|

Pre-Verse

e|----------------------------|
B|----------------------------|
G|----------------------------|
D|----------------------------|
A|---------3/6--6-------------|
E|---4---4--------------------|

Repeat Verse

Repeat Pre-Chorus

Repeat Chorus

[Interlude]

e|--------------------------------------|
B|--------------------------------------|
G|--------------------------------------|
D|---16--------14--------13--------11---|
A|---16-strum--14-strum--13-strum--11---|
E|---14--------12--------11--------9----|

[Solo]

e|-------------------------------------------------------|
B|-------------------------------------------------------|
G|-------------------------------------------------------|
D|--10-----------------------10--------------------------|
A|--10-strum-----10--6--8~---10-strum-----10--6--10--8~--|
E|--8------------------------8---------------------------|

e|----------------------------------------------------------|
B|----------------------------------------------------------|
G|----------------------------------------------------------|
D|--10------------------------10----------------------------|
A|--10-strum-----13--8--10~---10-strum-----13--8--10--8--6~-|
E|--8-------------------------8-----------------------------|

Repeat Chorus

            
            
Suggest correction
Creating personal tab
Creating personal tab
You can edit any tab online and save it as your Personal.

You can edit, replace or remove any tab part or add personal notes – all changes will be seen only by you.

Personal tabs can be accessed anytime from any device, even offline.
Learn more »
comments
print report bad tab
26 comments total. Showing first comments.
0 reply
ben281 105 Mar 24, 2002 07:00 PM

hey nice tab... i like the intro it's a little easier to play than mine, but they're pretty much the same. everything else sounds pretty good too once again awesome tab

0 reply
monkeyslave 10 Mar 26, 2002 07:00 PM

Yes, well, my girlfriend is also in a band and they love to play this song. Believe me, it's better when they know the cords then when they try to figure them out themselves

0 reply
Raquet 0 Mar 26, 2002 07:00 PM

DAMN!Nicejob..youknowwhatthough..thisisgoodtoo...
'cause alotof people say I kind of sound like Shakira when I sing, GREAT! :)

guest
Wanna post a correction for this tab? Suggest correction