Oops, an error
Loading. Please wait.

Underneath Your Clothes tab

version 3
version 3

Whole song

by Shakira
397 views 1 this week
no commentswrite comment
1 2 3 4 5
3 more votes to show rating
add to favorites
×
Save as Personal and add changes to this tab that will be seen only by you. Learn more ›
×
You can save this tab as Personal to edit and correct it or add notes. All changes will be seen only by you. Learn more »
launch autoscroll
font size
0
reset
how to read this tab
guitar tuner
edit
Autoscroll
slow
fast
+/-
esc
set tempo
stop
Author
Difficulty
Underneath Your Clothes – Shakira

Standard Tuning

No Capo

Chords used:

C   F   Am   G   Dm   D7
0   1   0    3    1    2
1   1   1    3    3    1
0   2   2    0    2    2
2   3   2    0    0    0
3   3   0    2    0    0
0   1   0    3    0    0

Intro
|--------------------|--------------------|--------------------|----h12---h12-------|
|------0-------------|--------------------|------0-------------|--------------------|
|--------0-0h2-2-0---|--------------------|--------0-0h2-------|-------h7-----------|
|----0---------------|--------4---4---4---|----0---------------|--------------------|
|--------------------|--3-------3---3-----|--------------------|--------------------|
|--3-----------------|--------------------|--3-------3---3s8---|--------------------|

Verse
Em                   Bm                   C                    D
|------------0-------|-----------2--------|-----------0--------|-----------2--------|
|--0-------------0---|--3------------3----|--1------------1----|--3-----------3-----|
|-------0------------|-------4------------|-------0------------|-------2------------|
|------------2-------|-----------4--------|-----------2--------|--0--------2--------|
|--------------------|--2-----------------|--3-----------------|--------------------|
|--0-----------------|--------------------|--------------------|--------------------|

You're a song                             Written by the hands of God

/Em                   Bm                   C                    D           D#Dim   \
|------------0-------|-----------2--------|-----------0--------|-----------2--------|
|--0-------------0---|--3------------3----|--1------------1----|--3-----------------|
|-------0------------|-------4------------|-------0------------|-------2-------1----|
|------------2-------|-----------4--------|-----------2--------|--0--------1--------|
|--------------------|--2-----------------|--3-----------------|--------------------|
|--0-----------------|--------------------|--------------------|--------------------|
\                                                                                   / x2
Don't get me wrong ‘cause                  This might sound to you a bit odd

But you own the place                     Where all my thoughts go 

Em                   Bm                  
|------------0-------|-----------2--------|
|--0-------------0---|--3------------3----|
|-------0------------|-------4------------|
|------------2-------|-----------4--------|
|--------------------|--2-----------------|
|--0-----------------|--------------------|
Hiding

    Am 
And right under your clothes
   Am
Is where I find them 

Chorus
G                    G/B                  C                    D
|--------------------|--------------------|--------------------|----h12---h12-------|
|------0-------------|--------------------|------0-------------|--------------------|
|--------0-0h2-2-0---|--------------------|--------0-0h2-------|-------h7-----------|
|----0---------------|--------4---4---4---|----0---------------|--------------------|
|--------------------|--3-------3---3-----|--------------------|--------------------|
|--3-----------------|--------------------|--3-------3---3s8---|--------------------|

Underneath Your Clothes      There's an endless story 

There's the man I chose      There's my territory

    Am               Am
And all the things I deserve

    D            D
For being such a good girl honey

Verse
Em                   Bm                   C                    D
|------------0-------|-----------2--------|-----------0--------|-----------2--------|
|--0-------------0---|--3------------3----|--1------------1----|--3-----------3-----|
|-------0------------|-------4------------|-------0------------|-------2------------|
|------------2-------|-----------4--------|-----------2--------|--0--------2--------|
|--------------------|--2-----------------|--3-----------------|--------------------|
|--0-----------------|--------------------|--------------------|--------------------|

Because of you                             I forgot the smart ways to lie

/Em                   Bm                   C                    D           D#Dim   \
|------------0-------|-----------2--------|-----------0--------|-----------2--------|
|--0-------------0---|--3------------3----|--1------------1----|--3-----------------|
|-------0------------|-------4------------|-------0------------|-------2-------1----|
|------------2-------|-----------4--------|-----------2--------|--0--------1--------|
|--------------------|--2-----------------|--3-----------------|--------------------|
|--0-----------------|--------------------|--------------------|--------------------|
\                                                                                   / x2
Because of you                             I'm running out of reasons to cry

When the friends are gone                  When the party's over 

Am                   Am
We will still belong to each other 

Chorus
G                    G/B                  C                    D
|--------------------|--------------------|--------------------|----h12---h12-------|
|------0-------------|--------------------|------0-------------|--------------------|
|--------0-0h2-2-0---|--------------------|--------0-0h2-------|-------h7-----------|
|----0---------------|--------4---4---4---|----0---------------|--------------------|
|--------------------|--3-------3---3-----|--------------------|--------------------|
|--3-----------------|--------------------|--3-------3---3s8---|--------------------|

Underneath Your Clothes      There's an endless story 

There's the man I chose      There's my territory

    Am               Am
And all the things I deserve

    D            D
For being such a good girl honey


Bridge
Bb                   F/A                  Gm                   F
|--------------------|--------------------|-----------3--------|-----------1--------|
|-----------3--------|-----------1--------|--------------------|---------------2----|
|---------------3----|---------------2----|-------3-------3----|-------2------------|
|-------3------------|-------3------------|---5----------------|---3----------------|
|---1----------------|---0----------------|--------------------|--------------------|
|--------------------|--------------------|--------------------|--------------------|

I love you more than all that's on the planet Movin' talkin' walkin' breathing

As every voice is hanging from the silence    Lamps are hanging from the ceiling


Ebmajor7             Ebmajor7             F                    F
|-----------3--------|-----------3--------|-----------1--------|-----------1--------|
|---------------3----|---------------3----|--------------------|---------------2----|
|-------3------------|-------3------------|-------2-------2----|-------2------------|
|---1----------------|---1----------------|---3----------------|---3----------------|
|--------------------|--------------------|--------------------|--------------------|
|--------------------|--------------------|--------------------|--------------------|

You know it's true Oh baby it's so funny   You almost don't believe it

Like a lady tied to her manners            I'm tied up to this feeling



Instrumental 
Em  Bm   C   D x4

Chorus
G                    G/B                  C                    D
|--------------------|--------------------|--------------------|----h12---h12-------|
|------0-------------|--------------------|------0-------------|--------------------|
|--------0-0h2-2-0---|--------------------|--------0-0h2-------|-------h7-----------|
|----0---------------|--------4---4---4---|----0---------------|--------------------|
|--------------------|--3-------3---3-----|--------------------|--------------------|
|--3-----------------|--------------------|--3-------3---3s8---|--------------------|

Underneath Your Clothes      There's an endless story 

There's the man I chose      There's my territory

    Am               Am
And all the things I deserve

    D            D
For being such a good girl honey   x2
Suggest correction
Creating personal tab
Creating personal tab
You can edit any tab online and save it as your Personal.

You can edit, replace or remove any tab part or add personal notes – all changes will be seen only by you.

Personal tabs can be accessed anytime from any device, even offline.
Learn more »
Give kudos to tab author, rate the tab!
1 2 3 4 5
comments
print report bad tab
guest
You may want to rate the tab now too:
select rating
Wanna post a correction for this tab? Suggest correction