Oops, an error
Loading. Please wait.

Waka Waka (Porque Esto Es Africa) Tab

version 2
version 2

Whole song

136 views 1 this week
no commentswrite comment
1 2 3 4 5
3 more votes to show rating
add to favorites
launch autoscroll
font size
0
reset
how to read this tab
guitar tuner
Autoscroll
slow
fast
+/-
esc
set tempo
stop
Help us to improve Ultimate-Guitar.com Take our survey!
×
Shakira:WaKa WaKa(PoR QuE eStO eS áFrIcA)

Es por oído espero que os guste y que este bien

1--------0-----------------------------------------------
2--3-3-3---3--2-2-2-3-2--3-3-2-0-0-3-3-2-0-0-3-3-3-0-3---

1--------0-2---------0------------------------------
2--3-3-3-----2-2-2-3---3-3-2-0-0-3-3-2-0-0-3-3-0-3--

1----0---2--0-5-2---0---2--0-5-2-----
2--3---3----------3---3--------------

1----------0-----0-0-0-0-0-2---0--2-2-2-------------2------------
2--3-3-3-3---3-3-------------3----------3-3-0-0-------3-3-0-3-3--
3-----------------------------------------------2-2--------------

1------------0---0-0-0-0-2---0-2-2-2-------------2------------
2--3-3-3-3-3---3-----------3---------3-3-0-0-0-----3-0-0-3-3--
3----------------------------------------------2--------------

El SoLo

1-----7---7--7-7-7-5-4-2----7---7--7-7-7-5-4-2--4--0-4-----9---9
2---5---5-----------4---4---------------5----5-----9---9-7-9-

1----7---7--7-7-7-5-4-2---7---7--7-7-7-5-4-2--4--0-4-----9---9-
2---5---5------------4---4----------------5----5-----9---9-7-9-

El CoRo

1--------0-----------------------------------------------
2--3-3-3---3--2-2-2-3-2--3-3-2-0-0-3-3-2-0-0-3-3-3-0-3---

1--------0-2---------0------------------------------
2--3-3-3-----2-2-2-3---3-3-2-0-0-3-3-2-0-0-3-3-0-3--

1----0---2--0-5-2---0---2--0-5-2-----
2--3---3----------3---3--------------

1----------0-----0-0-0-0-0-2---0--2-2-2-------------2------------
2--3-3-3-3---3-3-------------3----------3-3-0-0-------3-3-0-3-3--
3-----------------------------------------------2-2--------------

1------------0---0-0-0-0-2---0-2-2-2-------------2------------
2--3-3-3-3-3---3-----------3---------3-3-0-0-0-----3-0-0-3-3--
3----------------------------------------------2--------------
Suggest correction
Give kudos to tab author, rate the tab!
1 2 3 4 5
comments
print report bad tab
guest
You may want to rate the tab now too:
select rating
Wanna post a correction for this tab? Suggest correction