Oops, an error
Loading. Please wait.

Whenever Wherever tab

version 1
version 1

Whole song

Interactive

by Shakira
29,539 views 18 this week
8 commentsread comments
1 2 3 4 5
x 13
add to favorites
×
Save as Personal and add changes to this tab that will be seen only by you. Learn more ›
×
You can save this tab as Personal to edit and correct it or add notes. All changes will be seen only by you. Learn more »
launch autoscroll
font size
0
reset
how to read this tab
guitar tuner
edit
Autoscroll
slow
fast
+/-
esc
set tempo
stop
(The 2nd fret is capoed. All notations are relative to capo.
Here is the intro and the chords that are used in the fill, verse, chorus, and pre-chorus.)

[Intro]
e|----------------------------------------------------------------------------------------------|
B|-----------------3-------------------2------------0-------------------------------------------|
G|----------0------------------0-----------------------0----------------------------------------|
D|-------2----2------------2-----2----------------------2---------------------------------------|
A|------------------------------------------------------------0---1-----------------------------|
E|----------------------------------------------------------------------------------------------|

[Fill]
           Bm        Em        A
e|----------2---------0--------0------------------------------------------------------------------|
B|----------3---------0--------2------------------------------------------------------------------|
G|----------4---------0--------2------------------------------------------------------------------|
D|----------4---------2--------2------------------------------------------------------------------|
A|----------2---------2--------0------------------------------------------------------------------|
E|--------------------0---------------------------------------------------------------------------|

[Verse]
       Bm     F#m     G      D      A          Bm      F#m      G       D      A
e|------2------2------3------2------0-----------2-------2-------3-------2------0----------------|
B|------3------2------3------3------2-----------3-------2-------3-------3------2----------------|
G|------4------2------0------2------2-----------4-------2-------0-------2------2----------------|
D|------4------4------0------0------2-----------4-------4-------0-------0------2----------------|
A|------2------4------2-------------0-----------2-------4-------2--------------0----------------|
E|-------------2------3----------------------------------2-------3------------------------------|

[Pre-Chorus]
               Em               Bm                G               A
e|-------0---------2--------3--------0-------------------------------------------------------------|
B|-------0---------3--------3--------2-------------------------------------------------------------|
G|-------0---------4--------0--------2-------------------------------------------------------------|
D|-------2---------4--------0--------2-------------------------------------------------------------|
A|-------2---------2--------2--------0-------------------------------------------------------------|
E|-------0------------------3----------------------------------------------------------------------|

(So the song goes like this)
[Intro]

[Fill]
Bm, E, A   (x2)

[Verse 1]
 Bm
Lucky you were born that far away so
F#m
We could both make fun of distance
G
Lucky that I love a foreign land for
 D                             A
The lucky fact of your existence 
Bm
Baby I would climb the Andes solely
F#m
To count the freckles on your body
G
Never could imagine there were only
D                                   A
Ten million ways to love somebody

[Pre-Chorus]
Em
Le lo lo le lo le, 
Bm
Le lo lo le ole,
G
Can't you see
A
I'm at your feet

[Chorus]
Bm              G
Whenever, wherever
D                          A
We're meant to be together
Bm                        G
I'll be there and you'll be near
Em                     A
And that's the deal my dear
Bm               G
There over, hereunder
D                     A
You'll never have to wonder
Bm                       G
We can always play by ear
Em                     A
But that's the deal my dear

[Fill]
Bm, Em, A     x2

[Verse 2]
Bm
        Lucky that my lips not only mumble
F#m
They spill kisses like a fountain
G
Lucky that my breasts are small and humble
D                                            A
So you don't confuse them with mountains
Bm                           
Lucky I have strong legs like my mother
F#m
        To run for cover when I need it
G
And these two eyes that for no other
D                                      A
The day you leave will cry a river 

[Pre-Chorus]
Em
Le lo lo le lo le, 
Bm
Le lo lo le ole,
G
Can't you see
A
I'm at your feet

[Chorus]
Bm               G
Whenever, wherever
        D                          A
We're meant to be together
Bm                        G
I'll be there and you'll be near
        Em                      A
And that's the deal my dear
 Bm                 G
There over, hereunder
D                     A
You'll never have to wonder
        Bm                       G
We can always play by ear
Em                    A
And that's the deal my dear

[Pre-Chorus]
Em
Le lo lo le lo le, 
Bm
Le lo lo le ole,
G
Think out loud
A
Say it again
Em
Le lo lo le lo le ole!
Bm
Tell me one more time!
G
That you'll live
        A
Lost in my eyes!

[Chorus]
Bm              G
Whenever, wherever
D                          A
We're meant to be together
Bm                         G
I'll be there and you'll be near
Em                      A
And that's the deal my dear
Bm               G
There over, hereunder
D                          A
You've got me head over heels
Bm                        G
There's nothing left to fear
Em                               A
If you really feel the way I feel

[Fill/Outro]
Bm, Em, A    (x2)


(the version without the capo)

[Intro]
e|------------------------------------------------------------------------------------------------|
B|-----------------5-------------------4------------2---------------------------------------------|
G|----------2------------------2----------------------2-------------------------------------------|
D|-------4----4------------4-----4----------------------4-----------------------------------------|
A|------------------------------------------------------------2---3-------------------------------|
E|------------------------------------------------------------------------------------------------|

[Fill]
           C#m       F#m       B
e|----------4---------2--------2-------------------------------------------------------------------|
B|----------5---------2--------4-------------------------------------------------------------------|
G|----------6---------2--------4-------------------------------------------------------------------|
D|----------6---------4--------4-------------------------------------------------------------------|
A|----------4---------4--------2-------------------------------------------------------------------|
E|--------------------2----------------------------------------------------------------------------|

[Verse]
      C#m     G#      A      E      B          C#m     G#       A       E      B
e|------4------4------0------0------2-----------4-------4-------0-------0------2------------------|
B|------5------4------2------0------4-----------5-------4-------2-------0------4------------------|
G|------6------4------2------1------4-----------6-------4-------2-------1------4------------------|
D|------6------6------2------2------4-----------6-------6-------2-------2------4------------------|
A|------4------6------0------2------2-----------4-------6-------0-------2------2------------------|
E|-------------4--------------0--------------------------4---------------0------------------------|

[Pre-Chorus]
              F#m            C#m              A                B
e|-------2---------4--------0--------2-------------------------------------------------------------|
B|-------2---------5--------2--------4-------------------------------------------------------------|
G|-------2---------6--------2--------4-------------------------------------------------------------|
D|-------4---------6--------2--------4-------------------------------------------------------------|
A|-------4---------4--------0--------2-------------------------------------------------------------|
E|-------2-----------------------------------------------------------------------------------------|


(So the song goes like this)

[Intro]
[Fill]
C#m, F#m, B   x2

[Verse 1]
C#m
Lucky you were born that far away so
G#
We could both make fun of distance
A
Lucky that I love a foreign land for
E                             B
The lucky fact of your existence 
C#m
Baby I would climb the Andes solely
      G#
To count the freckles on your body
A
Never could imagine there were only
        E                                   B
Ten million ways to love somebody

[Pre-Chorus]
F#m
        Le lo lo le lo le, 
C#m
Le lo lo le ole,
A
            Can't you see
B
I'm at your feet

[Chorus]
C#m              A
Whenever, wherever
      E                          B
We're meant to be together
C#m                        A
        I'll be there and you'll be near
F#m                    B
And that's the deal my dear
C#m               A
There over, hereunder
E                     B
        You'll never have to wonder
C#m                       A
We can always play by ear
F#m                     B
But that's the deal my dear

[Fill]
C#m, F#m, B    (x2)

[Verse 2]
C#m
Lucky that my lips not only mumble
G#
They spill kisses like a fountain
A
Lucky that my breasts are small and humble
E                                              B
So you don't confuse them with mountains
C#m                           
Lucky I have strong legs like my mother
G#
To run for cover when I need it
A
And these two eyes that for no other
E                                      B
The day you leave will cry a river 

[Pre-Chorus]
F#m
Le lo lo le lo le, 
C#m
Le lo lo le ole,
A
            Can't you see
B
I'm at your feet

[Chorus]
C#m               A
Whenever, wherever
E                          B
        We're meant to be together
C#m                       A
        I'll be there and you'll be near
F#m                      B
And that's the deal my dear
C#m                A
There over, hereunder
E                     B
You'll never have to wonder
C#m                      A
We can always play by ear
F#m                    B
And that's the deal my dear

[Pre-Chorus]
F#m
Le lo lo le lo le, 
C#m
Le lo lo le ole,
A
Think out loud...
B
Say it again....
            F#m
Le lo lo le lo le ole!
C#m
Tell me one more time!
A
That you'll live
B
Lost in my eyes!

[Chorus]
C#m              A
Whenever, wherever
E                          B
We're meant to be together
C#m                        A
I'll be there and you'll be near
F#m                    B
And that's the deal my dear
C#m               A
There over, hereunder
E                          B
         You've got me head over heels
C#m                        A
There's nothing left to fear
F#m                               B
If you really feel the way I feel

[Fill/Outro]
C#m, F#m, B    (x2)

            
            
Suggest correction
Creating personal tab
Creating personal tab
You can edit any tab online and save it as your Personal.

You can edit, replace or remove any tab part or add personal notes – all changes will be seen only by you.

Personal tabs can be accessed anytime from any device, even offline.
Learn more »
comments
print report bad tab
8 comments total. Showing first comments.
0 reply
AbsoluteZero 80 Apr 09, 2002 08:00 PM

Sorry that the layout is so messed up. I'll fix it asap.

0 reply
krissy1427 0 May 06, 2002 08:00 PM

I haven't trid out this tab yet but it sounds good but if it doesn't sound quite right then i will make a few amendments and then i will get back to you. P.s: carry on the gr8 work!!

0 reply
Anthony 90 May 10, 2002 08:00 PM

i reckon this is the best i've seen.

guest
You may want to rate the tab now too:
select rating
Wanna post a correction for this tab? Suggest correction