Oops, an error
Loading. Please wait.

Asbo Sports Day tab

version 1
version 1

Whole song

by Sham 69
185 views 1 this week
1 commentread comment
1 2 3 4 5
3 more votes to show rating
add to favorites
×
Save as Personal and add changes to this tab that will be seen only by you. Learn more ›
×
You can save this tab as Personal to edit and correct it or add notes. All changes will be seen only by you. Learn more »
launch autoscroll
font size
0
reset
how to read this tab
guitar tuner
edit
Autoscroll
slow
fast
+/-
esc
set tempo
stop
Author
Difficulty
---------------------------------------------------------------------------|
                         Asbo sports day - Sham 69
---------------------------------------------------------------------------|

Tuning: Standard
Mail: degot@bk.ru

Intro
e|------------------------------------------------------------------------|
B|------------------------------------------------------------------------|
G|------------------------------------------------------------------------|
D|-----44x44444----77--999------------------------------------------------|
A|-----22x02020----55--777------------------------------------------------|
E|------------------------------------------------------------------------| x8

Main riff
e|------------------------------------------------------------------------|
B|------------------------------------------------------------------------|
G|------------------------------------------------------------------------|
D|-----xx4-4-4---77--999--------------------------------------------------|
A|-----xx2-2-2---55--777--------------------------------------------------|
E|------------------------------------------------------------------------| x4

Chorus
e|------------------------------------------------------------------------|
B|------------------------------------------------------------------------|
G|------------------------------------------------------------------------|
D|-----4---4------------4---4---------------------------------------------|
A|-----2---2-4-2--------2---2-44-222--------------------------------------|
E|-----------2-0--------------22-000--------------------------------------| x2

After chorus play the same thing as intro.
Then main riff,
then chorus,
then solo


^^ - bend
~ - vibrato
\  - slide (\7 means slide from "nothing" to 7)

Solo
e|--\7-77----------------------------------------77---------------------------------|
B|--\7-77-97---777--979--9^^9^^9-x97---7------\7-77-97---777---7-9^^9^^9-97---7-----|
G|--------97---777--979--9^^9^^9-x97---7------------97---777---7-9^^9^^9-97---7-----|
D|-----------9-----------------------9---9-------------9-----9--------------9---9~\-|
A|----------------------------------------------------------------------------------|
E|----------------------------------------------------------------------------------|

Then intro,
then main riff,
then chorus x2

End solo
e|-----7--7-7-7---9---9---7---7------------------------------------------|
B|-----7---7-7----7--7----5--5-5-----------------------------------------|
G|-----------------------------------------------------------------------|
D|-----------------------------------------------------------------------|
A|-----------------------------------------------------------------------|
E|-----------------------------------------------------------------------|

            
            
Suggest correction
Creating personal tab
Creating personal tab
You can edit any tab online and save it as your Personal.

You can edit, replace or remove any tab part or add personal notes – all changes will be seen only by you.

Personal tabs can be accessed anytime from any device, even offline.
Learn more »
Give kudos to tab author, rate the tab!
1 2 3 4 5
comments
print report bad tab
1 comment total.
0 reply
degot88 968 Jul 15, 2010 07:32 AM, edited on October 10 2015, 09:17 am

undefined

guest
You may want to rate the tab now too:
select rating
Wanna post a correction for this tab? Suggest correction