Oops, an error
Loading. Please wait.

Linda Tab

39 views 1 this week
no commentswrite comment
1 2 3 4 5
3 more votes to show rating
add to favorites
launch autoscroll
font size
0
reset
how to read this tab
guitar tuner
×
Best way to learn
"Linda"
Autoscroll
slow
fast
+/-
esc
set tempo
stop
Bueno, yo les saqué los acordes & el punteo tambien
ojalá les guste c:

CAPO TRASTE EN EL 4º ESPACIO

Acordes: Mim - Lam - Lam - Sib


Intro:


1---------------------------
2------9--11/12--11--9------
3----9-----------------9----  (x2)
4---------------------------
5---------------------------
6---------------------------

1--------------------------------------------------------
2------9--11/12--11--9--12--12/14--12--11--16--14--12--11
3----9-------------------------------------- ------------
4--------------------------------------------------------
5--------------------------------------------------------
6--------------------------------------------------------

Después toda la canción sigue con los mismos acordes
basta con escucharla y llevar el ritmo.
Suggest correction
Give kudos to tab author, rate the tab!
1 2 3 4 5
comments
print report bad tab
guest
You may want to rate the tab now too:
select rating
Wanna post a correction for this tab? Suggest correction