Oops, an error
Loading. Please wait.

To Leave tab

version 1
version 1

Whole song

Interactive

1,400 views 1 this week
1 commentread comment
1 2 3 4 5
3 more votes to show rating
add to favorites
×
Save as Personal and add changes to this tab that will be seen only by you. Learn more ›
×
You can save this tab as Personal to edit and correct it or add notes. All changes will be seen only by you. Learn more »
launch autoscroll
font size
0
reset
how to read this tab
guitar tuner
edit
Autoscroll
slow
fast
+/-
esc
set tempo
stop
Author
Difficulty
ShamRain - To Leave
Tuning: Standard


Intro part 1:
E-------------------------------------------|
B---12--------------------------------------|
G-------------------------------------------|
D--------14-14-12-14---14-14-14/9---9-9-9---|
A-------------------------------------------|
E-------------------------------------------|

E--------------------------------------|
B---12---------------------------------|
G--------------------------------------|
D--------14-14-12-14/7-9-9-9---9-9-9---|
A--------------------------------------|
E--------------------------------------|

Intro part 2:
E---------------------------------------|
B---------------------------------------|
G---------------------------------------|
D---/12----12-12-10-9/7---7-9---9-9-9---|
A---------------------------------------|
E---------------------------------------|

E-------------------------------------------|
B-------------------------------------------|
G-------------------------------------------|
D---/12----12-12-10-9/7---9-9-9-8---8-8-8---|
A-------------------------------------------|
E-------------------------------------------|

Intro part 3:
E--------------------------------------------------|
B---12---------------------------------------------|
G--------------------------------------------------|
D--------14-14-12-14/17---17-17-17-16---16-16-16---|
A--------------------------------------------------|
E--------------------------------------------------|

E--------------------------------------------------|
B---12---------------------------------------------|
G--------------------------------------------------|
D--------14-14-12-14/17---17-17-17-16---16-12-12---|
A--------------------------------------------------|
E--------------------------------------------------|

Then repeat intro part 2, 1 and 2 again.


Verse & chorus chords (listen to the song for order):
Em Bm Am Bm

            
            
Suggest correction
Creating personal tab
Creating personal tab
You can edit any tab online and save it as your Personal.

You can edit, replace or remove any tab part or add personal notes – all changes will be seen only by you.

Personal tabs can be accessed anytime from any device, even offline.
Learn more »
Give kudos to tab author, rate the tab!
1 2 3 4 5
comments
print report bad tab
1 comment total.
0 reply
ceyhan2000.06 10 May 06, 2017 05:15 AM

What a song... 2016 Kasım Aralık. 2016 kış. Ben hatalarım ve kulaklığım.... Keşke değiştirebilsem bazı şeyleri

guest
You may want to rate the tab now too:
select rating
Wanna post a correction for this tab? Suggest correction