Oops, an error
Loading. Please wait.

Alipin Tab

version 1
version 1

Whole song

Interactive

119,331 views 81 this week
46 commentsread comments
1 2 3 4 5
x 30
add to favorites
launch autoscroll
font size
0
reset
how to read this tab
guitar tuner
Autoscroll
slow
fast
+/-
esc
set tempo
stop
Help us to improve Ultimate-Guitar.com Take our survey!
×
Song: Alipin
Artist: Shamrock
Tabbed: Dan Ace Asuncion (BlackMantra Band)
Email: www.danaceasuncion@yahoo.com
Standard Tunning

Hi!to all members of Proclecia Band!!! 
Hi!to Red Fox Team 2006 Champion & Hi!to my Family!!!
i Dedicate this tabbed to Proclecia international School Balanga, Bataan  

[Intro]
e|------3-----3-Tap---0--0--0-------|
B|-------3----3--------3--3-1-0-----|
G|----------------------------------|
D|----0-----------------------------|  (2X)
A|---2------2---------3-3--3--------|
E|--3-------------------------------|

[Verse 1]
e|--------------3-Tap-3-----3-tap-3---0-Tap--0---------|
B|--------------3-----3-----3-----3-----------3--------|
G|----4-Tap-4----------------------------------2-------|  
D|----3-----3------------------------0------0----------|  (2X)
A|----5-----5--2------2--0-3------3--------------------|
E|--3-------3------------------------------------------|

[Verse]
Di ko man maamin
Ikaw ay mahalaga sa akin
Di ko man maisip
Sa pagtulog ikaw ang panaginip

[Refrain]
e|---------------3-Tap--3------3-Tap--3----0-Tap--0--3-3-2----|
B|---------------3-------3-----3-------3-----------3----------|
G|---5-Tap--5-------------------------------------------------|
D|---5-------5----------------------------0------0---0-0-0----|
A|--------------2------2----0-3------3------------------------|
E|--5------5--------------------------------------------------|

[Refrain]
Malabo man ang aking pag-iisip
Sana’y pakinggan mo ang sigaw nitong damdamin

[Chorus]
e|---3-Tap-3----3-Tap-3----3-Tap-3------0---3-Tap-3------|
B|---3------3---3------3---3------3----0-0--3------3-----|
G|------------------------------------0------------------|
D|-------------------------------------------------------|
A|--3------3---2------2---3------3---------3------3------|
E|-----------------------------------0-------------------|

e|-----------------------------3-Tap-3-----0-Tap--0-------|
B|-----------------------------3-----3-3-----------3------|
G|-----4-Tap-4-----5-Tap--5-------------------------2-----|
D|-----------------5-------5--------------0------0--------|
A|------------5---------------3------3--------------------|
E|--0-3------3----5------5--------------------------------|

[Chorus]
Ako’y alipin mo kahit hindi batid
Aaminin ko minsan ako’y manhid
Sana ay iyong naririnig
Sayong yakap ako’y nasasabik

[Intro]
e|------3-----3-Tap---0--0--0-------|       |--12--|
B|-------3----3--------3--3-1-0-----|       |--12--|
G|----------------------------------|       |--12--| Harmonic
D|----0-----------------------------|  (2X) |------|
A|---2------2---------3-3--3--------|       |------|
E|--3-------------------------------|       |------|

[Verse 2]
e|--------------3-Tap-3-----3-tap-3---0-Tap--0---------|
B|--------------3-----3-----3-----3-----------3--------|
G|----4-Tap-4----------------------------------2-------|  
D|----3-----3------------------------0------0----------|  (2X)
A|----5-----5--2------2--0-3------3--------------------|
E|--3-------3------------------------------------------|

[Verse 2]
Ayoko sa iba
Sayo  ako ay hindi magsasawa
Ano man ang iyong sabihin
Umasa ka ito ay diringgin

[Refrain]
e|---------------3-Tap--3------3-Tap--3----0-Tap--0--3-3-2----|
B|---------------3-------3-----3-------3-----------3----------|
G|---5-Tap--5-------------------------------------------------|
D|---5-------5----------------------------0------0---0-0-0----|
A|--------------2------2----0-3------3------------------------|
E|--5------5--------------------------------------------------|

[Refrain]
Madalas man na parang aso’t pusa
Giliw sa piling mo ako ay masaya

[Chorus]
e|---3-Tap-3----3-Tap-3----3-Tap-3------0---3-Tap-3------|
B|---3------3---3------3---3------3----0-0--3------3-----|
G|------------------------------------0------------------|
D|-------------------------------------------------------|
A|--3------3---2------2---3------3---------3------3------|
E|-----------------------------------0-------------------|

e|-----------------------------3-Tap-3-----0-Tap--0-------|
B|-----------------------------3-----3-3-----------3------|
G|-----4-Tap-4-----5-Tap--5-------------------------2-----|
D|-----------------5-------5--------------0------0--------|
A|------------5---------------3------3--------------------|
E|--0-3------3----5------5--------------------------------|

[Chorus]
Ako’y alipin mo kahit hindi batid
Aaminin ko minsan ako’y manhid
Sana ay iyong naririnig
Sayong yakap ako’y nasasabik

 [Adlib]
e|-------------------------------------------------------------|
B|-------------------------------------------------------------|
G|----------------------------------------------5p4-------4----|
D|--5-5-5-0-0-7-7—5h7-7/9-9-9-7-7-5-5-5/7-7—5h7-----5-5/7---5--|
A|-------------------------------------------------------------|
E|-------------------------------------------------------------|

e|--------------------------------------------|
B|--------------------------------------------|
G|-----5p4-----------------5p4----------------|
D|I –5h7-----5-5/7-5-7p5p4h5-----5/7-5-5h7-7----|
A|--------------------------------------------|
E|--------------------------------------------|

[Bridge]
e|---------------3-Tap--3------3-Tap--3----0-Tap--0--3-3-2----|
B|---------------3-------3-----3-------3-----------3----------|
G|---5-Tap--5-------------------------------------------------|
D|---5-------5----------------------------0------0---0-0-0----|
A|--------------2------2----0-3------3------------------------|
E|--5------5--------------------------------------------------|

[Bridge]
Pilit mang abutin ang mga tala
Basta’t sa akin wag kang mawawala

[Chorus]
e|---3-Tap-3----3-Tap-3----3-Tap-3------0---3-Tap-3------|
B|---3------3---3------3---3------3----0-0--3------3-----|
G|------------------------------------0------------------|
D|-------------------------------------------------------|
A|--3------3---2------2---3------3---------3------3------|
E|-----------------------------------0-------------------|

e|-----------------------------3-Tap-3-----0-Tap--0-------|
B|-----------------------------3-----3-3-----------3------|
G|-----4-Tap-4-----5-Tap--5-------------------------2-----|
D|-----------------5-------5--------------0------0--------| (2x Last Chorus)
A|------------5---------------3------3--------------------|
E|--0-3------3----5------5--------------------------------|

[Chorus]
Ako’y alipin mo kahit hindi batid
Aaminin ko minsan ako’y manhid
Sana ay iyong naririnig
Sayong yakap ako’y nasasabik 
Pagkat ikaw lang ang nais makatabi
Malamig man o mainit ang gabi
Nais ko sana iparating na ikaw lamang
Ang siyang aking iibigin

e|------3-----3-Tap---0--0--0-------|       |--12--|
B|-------3----3--------3--3-1-0-----|       |--12--|
G|----------------------------------|       |--12--| Harmonic
D|----0-----------------------------|  (2X) |------|    
A|---2------2---------3-3--3--------|       |------|
E|--3-------------------------------|       |------|

[End]

Goodluck!!!!!!!!

************************************

| p  Pull-off
| h  Hammer-on
| /  Slide up

************************************
Suggest correction
comments
print report bad tab
46 comments total. Showing first comments.
+2 reply
jason_snuffbox 20 Apr 06, 2006 07:08 AM

hoy walang kwenta tab mo unggoy!!!!

+2 reply
jason_snuffbox 20 Apr 06, 2006 07:17 AM

tangining tab yan!!!! burahin mo yan!!

+2 reply
rockgodgeorge 154 Apr 25, 2006 01:12 AM

alipin ba to? ampanget at bakit 4 star?

guest
You may want to rate the tab now too:
select rating
Wanna post a correction for this tab? Suggest correction