Oops, an error
Loading. Please wait.

Alipin Chords

version 2
version 2

Whole song

Interactive

40,871 views 27 this week
2 commentsread comments
1 2 3 4 5
3 more votes to show rating
add to favorites
launch autoscroll
font size
0
reset
transpose
0
reset
simplify chords
display chords
guitar tuner
Autoscroll
slow
fast
+/-
esc
set tempo
stop
Help us to improve Ultimate-Guitar.com Take our survey!
×
Title: ALIPIN
Artist: SHAMROCK

Intro: 
 
    G9            C7         C9         Dsus
e.---2------------2--------2----------------3------------
A.----2-----------2---------2------------------2---------
D.--------------------------------------4----------------  ( 2x )
G.------------------------------------------------------
B.------------------2--------3--------------------------
E.-----3------------------------------------------------

Verse 1:
e.---2-----------2------------2---------------3-----------
A.----2-----------2-----------2------------------2--------
D.----------------------------------------4---------------  ( 2x )
G.--------------------------------------------------------
B.------------------2---------3---------------------------
E.-----3--------------------------------------------------


Refrain:
        A7      G9          A7         G
e.---------------3---------------------3--------------------
A.----------------3---------------------3-------------------
D.-----------------------------------------------------------
G.-----2----------------------2------------------------------
B.--1----------------------1---------------------------------
E.-----------------3---------------------3-------------------

Kasama 2 sa refrain huh.. ....
       Em         A7       G7             Dsus.
e.--------------------------3---------------3-------------
A.-------2-------------------3-----------------2----------
D.--------2------------------------------4----------------
G.------------------2-------------------------------------
B.---------------1----------------------------------------
E.-------------------------------3------------------------

Chorus:
    G9            C7         C9         Dsus
e.---2------------2--------2----------------3------------
A.----2-----------2---------2------------------2---------
D.--------------------------------------4----------------  
G.------------------------------------------------------
B.------------------2--------3--------------------------
E.-----3------------------------------------------------


   G9            C7         C9         Dsus
e.---2------------2--------2----------------3-----------------12----------
A.---2-----------2---------2------------------2---------------12-Harmonics-
D.--------------------------------------4---------------------12----------  
G.------------------------------------------------------------------------
B.------------------2--------3--------------------------------------------
E.-----3------------------------------------------------------------------

Verse 2:



Verse 1:
e.---2-----------2------------2---------------3-----------
A.----2-----------2-----------2------------------2--------
D.----------------------------------------4---------------  ( 2x )
G.--------------------------------------------------------
B.------------------2---------3---------------------------
E.-----3--------------------------------------------------


2nd Refrain nmn pow 2. . 

       A7      G9          A7         G
e.---------------3---------------------3--------------------
A.----------------3---------------------3-------------------
D.-----------------------------------------------------------
G.-----2----------------------2------------------------------
B.--1----------------------1---------------------------------
E.-----------------3---------------------3-------------------

Kasama po ult 2 huh.. ....hehehe...
       Em         A7       G7             Dsus.
e.--------------------------3---------------3-------------
A.-------2-------------------3-----------------2----------
D.--------2------------------------------4----------------
G.------------------2-------------------------------------
B.---------------1----------------------------------------
E.-------------------------------3------------------------


Chorus:

    G9            C7         C9         Dsus
e.---2------------2--------2----------------3------------
A.----2-----------2---------2------------------2---------
D.--------------------------------------4----------------  
G.------------------------------------------------------
B.------------------2--------3--------------------------
E.-----3------------------------------------------------

   G9            C7         C9         Dsus
e.---2------------2--------2----------------3-----------------12----------
A.---2-----------2---------2------------------2---------------12-Harmonics-
D.--------------------------------------4---------------------12----------  
G.------------------------------------------------------------------------
B.------------------2--------3--------------------------------------------
E.-----3------------------------------------------------------------------


SOLO:
      
E|-----------|------------------------------|
B|-----------|------------------------------|
G|-----------|------------------------------|
D|-5-----7-7-|---5-7-7/9-10-9-7-7--5-5--7-7-|
A|---5-5-----|-7----------------------------|
E|-----------|------------------------------|  Taymingan nyo nlng pow ah..
 
e|-----------------|-----------------|----------------------|
B|-----------------|-----------------|----------------------|
G|-----------------|-----------------|----------------------|
D|-----10-9-7-9----|-----10-9-5/7-5--|-7-5-4-5-5/10-9-7-5---|
A|-5h7----------10-|-5h7-------------|--------------------5-|
E|-----------------|-----------------|----------------------|

Bridge:

gNn!! prin chords ng Refrain.. heheh. . 

       A7      G9          A7         G
e.---------------3---------------------3--------------------
A.----------------3---------------------3-------------------
D.-----------------------------------------------------------
G.-----2----------------------2------------------------------
B.--1----------------------1---------------------------------
E.-----------------3---------------------3-------------------


       Em         A7       G7             Dsus2  
-------------------------3-------------------3-----------
A.-------2-------------------3--------------------2------
D.--------2------------------------------4----------------
G.------------------2-------------------------------------
B.---------------1----------------------------------------
E.-------------------------------3------------------------


Repeat Chorus:

    G9            C7         C9         Dsus
e.---2------------2--------2----------------3------------
A.----2-----------2---------2------------------2---------
D.--------------------------------------4----------------  
G.------------------------------------------------------
B.------------------2--------3--------------------------     
E.-----3------------------------------------------------
                                                                (4x)
   G9            C7         C9         Dsus
e.---2------------2--------2----------------3-----------------12----------
A.---2-----------2---------2------------------2---------------12-Harmonics-
D.--------------------------------------4---------------------12----------  
G.------------------------------------------------------------------------
B.------------------2--------3--------------------------------------------
E.-----3------------------------------------------------------------------


ok pagtyagaan! nyo no pow 2ng tab!! n ginawa ko!! 
kyo na pow bahala!. . basta laruin  ung pag pluking & samahan nyo nrin,
ng pag ta-tap!! alam mo un!!..... heheheheh.. .qng my friendster ka!! plA!!
add m nmn aq!!heheheh christian_010@company.com . .. . pow
hehehehehehe. . .bait k nmn db. . . . ..  <^_^>
Suggest correction
Give kudos to tab author, rate the tab!
1 2 3 4 5
comments
print report bad tab
2 comments total.
0 reply
azpike23 10 Dec 14, 2007 03:03 AM

kiss my ass

0 reply
azpike23 10 Dec 14, 2007 03:04 AM

suck ur father's dick then put a finger on ur mom's pussy !

guest
You may want to rate the tab now too:
select rating
Wanna post a correction for this tab? Suggest correction