Oops, an error
Loading. Please wait.

Alipin Tab

version 3
version 3

Whole song

Interactive

91,098 views 177 this week
13 commentsread comments
1 2 3 4 5
excellent!
x 28
add to favorites
launch autoscroll
font size
0
reset
how to read this tab
guitar tuner
Autoscroll
slow
fast
+/-
esc
set tempo
stop
Help us to improve Ultimate-Guitar.com Take our survey!
×
Author
ALIPIN-by Shamrock


[Intro]

   G               Bmin7 .     C           Maj7       add9
e|-------3--------|------2--|--0-----------------0-----------------|
B|-3---------3----|3--------|--------------0----------3-----0------|
G|-0-----------0--|----2----|--0-------------0------------0-----0--|
D|-----0----------|---------|----------2--------------------------0|
A|---------------0|2--------|--3---------------3-------------------|
E|-3--------------|---------|--------------------------------------|

   G               Bmin7 .     C           Maj7       add9
e|------3--------|------2--|--0-----------------0--------------------|
B|-3---------3----|3--------|--------------0----------3-----1p0------|
G|-0-----------0--|----2----|--0-------------0------------0-----0----|
D|-----0----------|---------|----------2-----------------------------|
A|---------------0|2--------|--3---------------3---------------------|
E|-3--------------|---------|-------------------------------------0--|


[I.Verse]

     G(9)    *                       Bmin7
e|--------------------------------|----------------------------------|
B|---------------------------------|3-----3-T---3-----------3--------|
G|--2-------T---0-----------0------|2-----2-A---0-----------0---0----|
D|--0-----0-A---0-------0---0---0-0|---------------------------------|
A|----------P----------------------|2-------P---2-----------2-----0--|
E|--3------------------------------|---------------------------------|
*light tapping
                  Di  ko man  ma  a  min                        i

  C9                              D           add9
e|------------0------------------|------------0-------------------|
B|3-----3-T---3-----------3------|3-----3-T---3-----------3-------|
G|0-----0-A---------------0---0--|2-----2-A---------------2---2---|
D|-------------------------------|0-------P---0-----------0-----0-|
A|3-------P---3-----------3___3p0|--------------------------------|
E|-------------------------------|--------------------------------|

 kaw   ay   maha     laga    sa a   kin.

(Repeat the same chord pattern until Refrain)
Slight variation before Refrain-

  D           add9
e|------------0------------------|
B|3-----3-T---3-----------3---3\-|
G|2-----2-A---------------2---2\-|
D|0-------P---0-----------0------|
A|-------------------------------|
E|----------------------------0--|


[Refrain]

    Amin7                           G(9)    *
e|-------------0------------------|----------------------------------|
B|--1-------1---------------1------|------------0-----------0--------|
G|--0---------------------------4--|2-------T---0-----------0-----0--|
D|------2h4-------------2---------2|------0-A---0-------0-------0----|
A|--0-----------0------------------|---------------------------------|
E|---------------------------------|3-------P---3--------------------|

  Mala bo      man     ang        a  king  pag -ii  sip   sa na'y

  Amin7                           D9
e|0-----------------------0------|0------------------------------|
B|1---1-------1-----------1------|3-----3-T---3-----------3---3--|
G|0---0---T---0-----------0---0--|------2-A---2-----------2-----2|
D|2-------A---2-----------2------|0-------P---0-----------0------|
A|0-------P---0-----------------0|-------------------------------|
E|-------------------------------|-------------------------------|

paking  gan  mo      ang      sigaw  nitong  dam  da  min

  Dsus        D
e|3-----------2-------------------|
B|3-----3-T---3-----------3-------|
G|------2-A---------------2---2---|
D|0-------P---0-----------0-------|
A|------------------------------0-|
E|--------------------------------|

                           Ako'y  a

[Chorus]

   C9                              Bmin7       addsus4
e|-------------0------------------|2-----------2---------------------|
B|--3-----3-T---3-----------3------|3-----3-T---5-----------3--------|
G|--0-----0-A---------------0---0--|2-----2-A---2-----------2---0----|
D|---------------------------------|---------------------------------|
A|--3------ P---3-----------3-----0|2-------P---2-----------------0--|
E|---------------------------------|---------------------------------|

   li pin mo  ka hit  hin di    ba tid                     A    a mi

  C9                          .   Emin6
e|------------0-----------------|-------------0-----------------|
B|3-----3-T---3-----------3-----|-0-------0---------------0-----|
G|0-----0-A---0-----------4---0-|-0-----0---------------------4-|
D|--------------------2---------|-4---4---------------4---------|
A|3------ P---3-----------------|-------------------------------|
E|------------------------------|-0-----------------------------|

    nin ko   minsan  ako'y   man hid                 sa  na  ay

 Amin7
e|-------------0------------------|-------------------------------|
B|-1-------1---------------1------|------------0-----------0------|
G|-0---------------------------4--|2-------T---0-----------------0|
D|-2---2h4-------------2---------2|------0-A-----------0-------0--|
A|-0-----------0------------------|--------------------------2----|
E|--------------------------------|3-------P---3------------------|

                iyong  nari  ri  nig                       sayong

  Amin7                           D9
e|0-----------------------0------|0------------------------------|
B|1---0---T---1-----------1------|3-----3-T---3-----------3------|
G|0---0---A---0-----------0---0--|------2-A---2-----------2---2--|
D|------------2-----------2------|0-------P---0-----------0-----0|
A|0-------P---0-----------------0|-------------------------------|
E|-------------------------------|-------------------------------|

 ya  kap    ako'y    na  sa  sabik


[Outro]

   G               Bmin7 .     C           Maj7       add9
e|------3--------|------2--|--0-----------------0--------------------|
B|-3---------3----|3--------|--------------0----------3---------3----|
G|-0-----------0--|----2----|--0-------------0----------0-----0---0--|
D|-----0----------|---------|----------2------------------0h2--------|
A|---------------0|2--------|--3---------------3---------------------|
E|-3--------------|---------|----------------------------------------|

   G               Bmin7 .     C           Maj7       add9
e|------3--------|------2--|--0-----------------0--------------(12----|
B|-3---------3----|3--------|--------------0----------3-------(12)_---|
G|-0-----------0--|----2----|--0-------------0----------0---(12)___---|
D|-----0----------|---------|----------2------------------x-----------|
A|---------------0|2--------|--3---------------3----------------------|
E|-3--------------|---------|-----------------------------------------|

(Repeat 1st Stanza Verse, Refrain and Chorus pattern for 2nd Stanza)

[II.Verse] Ayoko sa iba, sayo ako ay hindi magsasawa
          anuman ang 'yong sabihin, umasa ka ikaw ay diringgin

[Refrain] Madalas man na parang aso at pusa
          giliw, sa piling mo ako ay masaya.

[Chorus] (same lyrics)

Slight variation in 2nd stanza chorus-

   C9                          .   Emin6
e|------------0-----------------|-------------0--------------------|
B|-3-----3-T---3-----------3-----|-0-------0---------------0-------|
G|-0-----0-A---0-----------4---0-|-0---------------------------4---|
D|---------------------2-------4-|-4---4h5-------------4-----------|
A|-3------ P---3-----------------|---------------------------------|
E|-------------------------------|-0-------------------------------|
 mi  nin ko   minsan  ako'y   man hid                 sa  na  ay

  Amin      add9
e|-------------0-------------------|
B|-1-------1p0-----------0-1p0-0---|
G|-------2-------------------------|
D|-----2---------------2---------2-|
A|-0-----------0-------------------|
E|---------------------------------|
                iyong  nari  rinig


[Interlude]

e|------------------------------------------------------------|
B|------------------------------------------------------------|
G|------------------------------------------------------------|
D|-----------------5\--0-0-----7-7-------------------------0h5|
A|------------------------------------------------------------|
E|------------------------------------------------------------|

      G                             D9
e|-------3-----3---------------|-0-----------0h2p0h2-----0----|
B|-3-----3-3---3---------3-----|-3-----3-3---3-------3---3----|
G|-0-----0-0-------------0---2-|-2-----2-2-----------2---2----|
D|-0-------0-------------0---0-|-0-------0-----------0---0----|
A|---------------------------0-|------------------------------|
E|-3---------------------------|------------------------------|
    ^     ^ ^   ^         ^   ^   ^     ^ ^   ^       ^   ^

e||------------------------------------------------------------|
B||------------------------------------------------------------|
G||------------------------------------------------------------|
D||7/9---10-9-----7-7\----5-5-----7-7--------------------------|
A||------------------------------------------------------------|
E||------------------------------------------------------------|

      Em                              Bmin7
e||---0-------0---------------0---|---------------2-2---------2|
B||---0-------0-----0---0-----0---|---3-----3-3---3-3---3-----3|
G||---0-----0-0---0-0---0-----0---|---2-----2-2---2-2-2-2-2---2|
D||---2-----2-2---2-2-2---2---2---|---4-------4---4---4---4---4|
A||---2-----2-2---2---2---2---2---|---2-----------2------------|
E||---0---------------0-------0---|----------------------------|
      ^     ^ ^   ^ ^ ^ ^ ^   ^       ^     ^ ^   ^ ^ ^ ^ ^   ^

e|------------------------------------------------------------------------|
B|------------------------------------------------------------------------|
G|------------------------------------------------------------------------|
D|------10---9-------7-------9------------10---9------/7-------5---7-5-4-5|
A|--5h7--------------------------10---5h7---------------------------------|
E|------------------------------------------------------------------------|

            Amin7                           G
e|-------0-------0---0-0---0-----0---|------------------------------------|
B|-------1-----1-1---1-1-1-1-----1---|---3-------0---3-----------3-3---3--|
G|-------0-----0-0---0---0-0-0---0---|---0-----0-0---0-0---0-----0-0-0-0--|
D|-------2-------2---2---2---2---2---|---0-----0-0---0-0-0-0-0---0---0----|
A|-------0-----------0---------------|---2-------2-------2---2------------|
E|-----------------------------------|---3---------------3----------------|
          ^     ^ ^   ^ ^ ^ ^ ^   ^       ^     ^ ^   ^ ^ ^ ^ ^   ^ ^ ^ ^

e||-----------------------------------------------------------------|
B||-----------------------------------------------------------------|
G||-----------------------------------------------------------------|
D||/10---9-------7-------5-------0----------------------------------|
A||-----------------------------------------------------------------|
E||-----------------------------------------------------------------|

    C                               D                   [Bridge]
e||-0-----0-----0-0-0-------------|-2-------------2p0h2-------------|
B||-1-----1-0---1-1-1-1-1---1-----|-3-----3-3---3-------3---3-------|
G||-0-----0-0---0---0-0-0---0---0-|-2-----2-2-----------2---2-------|
D||-2-------2---2---2---2---2---2-|-0-------0---0-------0-----------|
A||-3-----------------------3-----|-----------------------------0---|
E||-------------------------------|-------------------------------0-|
    ^     ^ ^   ^ ^ ^ ^ ^   ^   ^   ^     ^ ^           ^   ^

[Bridge](Do chorus chord pattern)

       Pilit man abutin ang mga tala, basta sakin wag kang mawawala

[Chorus](Added lyrics)

       Pagka't ikaw lang ang nais makatabi, malamig man o mainit ang gabi
       nais ko sana iparating na ikaw lamang ang siyang aking iibigin.

[End part]Repeat the [Outro]


(slight variation before the [outro])

e|-----------------------|
B|-----------------------|
G|-----------------0-----|
D|---------3/4-----------|
A|---------4/5-----------|
E|-----------------------|


***********************************************************************************************

h  =  hammer on
p  =  pull off
/  =  slide up
\  =  slide down
x  =  dead string
TAP=  tapping the string/strings
() =  natural harmonic
[] =  artificial harmonic
.  =  staccato effect
~~ =  vibratto effect
*  =  how it was played
^  =  strum
___=  Let ring (strike the 1st note and let it ring up to the 2nd note[without striking
2nd note]).

***********************************************************************************************

Feel free to comment at
regipaulslasia@yahoo.com is creeptopunkbing "Nakita mo ba?Ako narinig ko."  vote please.tnx!
Suggest correction
What's this?
You can suggest a correction to this tab. Community and Mods will review your correction and vote to approve or reject it.
comments
print report bad tab
13 comments total. Showing first comments.
0 reply
kulangot 50 wrote on July 3 2006, 08:37 pm

isa ka pang tanga!

0 reply
kertis 18 wrote on July 4 2006, 10:38 am

eh kung di ka ba naman sandamukal na gago kang kulangot ka eh!ikaw ata bisaya ehZ?hehe.palitan mu yang tenga mo uy..TEKA MAS MAGANDA ATA BUONG ULO MO na PATRANSPLANT MO.hehe.may alam ka ba sa musicZtingn ko alam mu lang magjakol e.

0 reply
Varsity10? 20 wrote on July 5 2006, 08:26 am

tama ba tong tab and mas acurate? new lng pow ako ung nauna kasi maling mali eh pls can someone tab this damn song correctly??

guest
You may want to rate the tab now too:
select rating
Please do not post tabs as comments. Select "correction" instead!