Oops, an error
Loading. Please wait.

Haplos tab

version 1
version 1

Whole song

34,210 views 54 this week
4 commentsread comments
1 2 3 4 5
x 11
add to favorites
×
Save as Personal and add changes to this tab that will be seen only by you. Learn more ›
×
You can save this tab as Personal to edit and correct it or add notes. All changes will be seen only by you. Learn more »
launch autoscroll
font size
0
reset
how to read this tab
guitar tuner
edit
Autoscroll
slow
fast
+/-
esc
set tempo
stop
Capo 1

[Intro]
       A        A9    A
e|-----0----0------------0--4-5---------------------------|
B|-----2---------0----2-----------------------------------|
G|-----2---2---2----2-------------------------------------|
D|-----2--------------------------------------------------|
A|-----0---------0----------------------------------------|
E|--------------------------------------------------------|

       A        A9    A
e|-----0----0---------------------------------------------|
B|-----2---------0----2-----------------------------------|
G|-----2---2---2----2-------------------------------------|
D|-----2--------------------------------------------------|
A|-----0---------0----------------------------------------|
E|--------------------------------------------------------|

[Verse 1]
      A9          E       F#m?
e|-----0----0---------------------------------------------|
B|-----0----------0----0---0---0---0---0------------------|
G|-----2--2---2---1--1-----2--2-2--2--2-2-----------------|
D|-----2--------------------------------------------------|
A|-----0--------------------------------------------------|
E|----------------0--------2-------2----------------------|
     Mahal...          hanggang kailan...

      Bm                          E
e|---------0------------0-------------0--------0----------|
B|----3------2-----3------2-------0-----2--0-----2--------|
G|----4--4------4--4--4------4----1--1-----1--1-----------|
D|--------------------------------------------------------|
A|----2------------2--------------------------------------|
E|--------------------------------0--------0--------------|         
   Maghihintay ang puso ko...    Nangungulila sa iyo

(parehas lang po.)

A9      E          F#m?
Handog, ang buhay ko
   Bm
Sa bawat pintig ng pulso
   E
Ay alay lamang sa iyo

[Refrain] 
(medyo pa-strum na po.)
Bm           DM7
Lahat ibibigay
Bm                     E-Esus-E               
Basta't sakin ay, wag kang mawawalay

[Chorus] 
(strumming na po.)
       DM7     E
Sabihin mo sa akin
       C#m          F#    
Kailan mali ang pag-ibig
    Bm
Kailangan bang masaktan pa
  E
Ating mga damdamin
       DM7   E
Yakapin mo ako
        C#m       F#
O hagkan mo akong muli
Bm   
Wag kang bibitiw
                E
Sabay nating aabutin
     A9
Ang langit

[Interlude] 
       A        A9    A
e|-----0----0------------0--4-5---------------------------|
B|-----2---------0----2-----------------------------------|
G|-----2---2---2----2-------------------------------------|
D|-----2--------------------------------------------------|
A|-----0---------0----------------------------------------|
E|--------------------------------------------------------|

       A        A9    A
e|-----0----0---------------------------------------------|
B|-----2---------0----2-----------------------------------|
G|-----2---2---2----2-------------------------------------|
D|-----2--------------------------------------------------|
A|-----0---------0----------------------------------------|
E|--------------------------------------------------------|

[Verse 2] 
(parehas lang po.ü)
Paano, magwawakas
Ang paghihirap ng dibdib
Sa Diyos akoy nananalig
Handog, Ang buhay ko
Sa bawat pintig ng pulso
Ay alay lamang sa iyo

[Refrain] 
(medyo pa-strum na po.)
Bm           DM7
Lahat ibibigay
Bm                     E-Esus-E               
Basta't sakin ay, wag kang mawawalay

[Chorus]
       DM7     E
Sabihin mo sa akin
       C#m          F#    
Kailan mali ang pag-ibig
    Bm
Kailangan bang masaktan pa
  E
Ating mga damdamin
       DM7   E
Yakapin mo ako
        C#m       F#  (PAUSE)
O hagkan mo akong muli
Bm (plucking)   
Wag kang bibitiw
E
Sabay nating hahaplusin
     A9
Ang langit...

[Outro]
       A        A9    A
e|-----0----0------------0--4-5---------------------------|
B|-----2---------0----2-----------------------------------|
G|-----2---2---2----2-------------------------------------|
D|-----2--------------------------------------------------|
A|-----0---------0----------------------------------------|
E|--------------------------------------------------------|

       A        A9    A
e|-----0----0---------------------------------------------|
B|-----2---------0----2-----------------------------------|
G|-----2---2---2----2-------------------------------------|
D|-----2--------------------------------------------------|
A|-----0---------0----------------------------------------|
E|--------------------------------------------------------|

            
            
Suggest correction
Creating personal tab
Creating personal tab
You can edit any tab online and save it as your Personal.

You can edit, replace or remove any tab part or add personal notes – all changes will be seen only by you.

Personal tabs can be accessed anytime from any device, even offline.
Learn more »
comments
print report bad tab
4 comments total. Showing first comments.
0 reply
demet003 10 Jun 21, 2007 09:24 PM

ang galing!!!!

0 reply
gakkung85 20 Jul 26, 2007 05:33 AM

nice lufet nga...
maauz n din...
:D

0 reply
11happy11 50 Aug 07, 2007 03:27 AM

i guess almost the same na... try ko pag-aralan^^
nice tabs d ko n kelangan kapain pa :P
ty^^

guest
You may want to rate the tab now too:
select rating
Wanna post a correction for this tab? Suggest correction