Oops, an error
Loading. Please wait.

Calorifero Tab

25 views 1 this week
no commentswrite comment
1 2 3 4 5
2 more votes to show rating
add to favorites
launch autoscroll
font size
0
reset
how to read this tab
guitar tuner
Autoscroll
slow
fast
+/-
esc
set tempo
stop
Help us to improve Ultimate-Guitar.com Take our survey!
×
Author
Difficulty
novice
[Verse ska]

E|--------------------------------|
B|--3-----------------------------|
G|--4--------------4--------------|
D|--4------x8------5--------------|
A|--2--------------5----x8--------|
E|-----------------3--------------|


[Bridge]

E|--------------------------|
B|--------------------------|
G|--------------------------|
D|--9--5--9--5--5--4--5--7--| ogni accordo x 3 volte (v^v)
A|--9--5--9--5--5--4--5--7--|
E|--7--3--7--3--3--2--3--5--|


[Verse]

E|--------------------------------|
B|--3-----------------------------|
G|--4--------------4--------------|
D|--4------x8------5--------------|
A|--2--------------5----x8--------|
E|-----------------3--------------|


[Chorus]

E|-----------------------------------|
B|-----------------------------------| * = x il ritmo a orecchio
G|--4*----------9-----7-----6-----7--| 
D|--4-----5*----x-----x-----x-----x--| ottave(trombe) x 1 volta sola
A|--2-----5-----7-----5-----4-----5--|
E|--------3--------------------------|

E|----------------------------|
B|----------------------------|
G|--4*----3--6--7--9--11--14--|
D|--4-----x--x--x--x--x---x---|
A|--2-----2--4--5--7--9---12--|
E|----------------------------|


[Verse]

E|--------------------------------|
B|--3-----------------------------|
G|--4--------------4--------------|
D|--4------x8------5--------------|
A|--2--------------5----x8--------|
E|-----------------3--------------|


[Bridge]

E|--------------------------|
B|--------------------------|
G|--------------------------|
D|--9--5--9--5--5--4--5--7--| ogni accordo x 3 volte (v^v)
A|--9--5--9--5--5--4--5--7--|
E|--7--3--7--3--3--2--3--5--|


[Chorus]

E|-----------------------------------|
B|-----------------------------------| * = x il ritmo a orecchio
G|--4*----------9-----7-----6-----7--|
D|--4-----5*----x-----x-----x-----x--| ottave(trombe) x 1 volta sola
A|--2-----5-----7-----5-----4-----5--|
E|--------3--------------------------|

E|----------------------------|
B|----------------------------|
G|--4*----3--6--7--9--11--14--|
D|--4-----x--x--x--x--x---x---|
A|--2-----2--4--5--7--9---12--|
E|----------------------------|


[End]

E|--------------------|
B|--------------------|
G|--7--------4--------|
D|--x--------4--------|
A|--5--------2--------|
E|--------------------|


x = dead note
Suggest correction
Give kudos to tab author, rate the tab!
1 2 3 4 5
comments
print report bad tab
guest
You may want to rate the tab now too:
select rating
Wanna post a correction for this tab? Suggest correction